Song name
# A B C D E F G H I J K L M N O P Q R S T U V W X Y Z

Macklemore And Ryan Lewis - Same Love tab

e-6---6--------------------|
B---8-------4---4--7/8-----|
G-------8-----5------------|
D-8---------5--------------|
A--------------------------|
E--------------------------|

e-6---6--------------------|
B---8-------4---4----------|
G-------8-----5------------|
D-8---------5--------2-----|
A--------------------------|
E--------------------------|
Tap to rate this tab
 
# A B C D E F G H I J K L M N O P Q R S T U V W X Y Z