Song name
# A B C D E F G H I J K L M N O P Q R S T U V W X Y Z

Macklemore - The Town tab

-------------------------------------------------------------------------------
			     THE TOWN - Macklemore
-------------------------------------------------------------------------------
Tabbed by:SwaggotsGotSwag

Tuning:Standard

Incredible song by an incredible artist.  Figured it out by ear and it sounds right.
                     INTRO RIFF
e|---------------------------------------------------------------------------|
B|---------------------------------------------------------------------------|
G|----------------10~--7/9---7b9--5~----------------------10--9--5-----------|
D|--------------------------------------------------7---------------7--------|
A|----10h12------------------------------------------------------------------|
E|---------------------------------------------------------------------------|

e|---------------------------------------------------------------------------|
B|---------------------------------------------------------------------------|
G|---7----9/5----------------------------------------------------------------|
D|--------------7--9---------------------------------------------------------|
A|---------------------------------------------------------------------------|
E|---------------------------------------------------------------------------|
                         VERSE-REPEATED THROUGHOUT SONG
e|---------------------------------------------------------------------------|
B|---------------------------------------------------------------------------|
G|----------------------------10-9----7b9-5-----------(x2)-------------------|
D|---------------------------------------------------------------------------|
A|-------10h12-10h12---------------------------------------------------------|
E|---------------------------------------------------------------------------|

e|---------------------------------------------------------------------------|
B|---------------------------------------------------------------------------|
G|----------------7b9--5--------------------------(x4)-----------------------|
D|---------------------------------------------------------------------------|
A|---------------------------------------------------------------------------|
E|---------------------------------------------------------------------------|


************************************

| /   slide up
| \   slide down
| h   hammer-on
| p   pull-off
| ~   vibrato
| +   harmonic
| x   Mute note
| b   Bend
| pb  Pre-bend
| br  Bend release
| pbr Pre-bend release
| brb Bend release bend

************************************
Tap to rate this tab
# A B C D E F G H I J K L M N O P Q R S T U V W X Y Z