Song name
# A B C D E F G H I J K L M N O P Q R S T U V W X Y Z

Macklemore - Otherside tab

e|------------------------------------|
b|------------------------------------|
g|------------------------------------|
D|---------7-7-9-7--------------------|
A|---7-7-7---------10-7---5-5-5-------|
E|------------------------------------|

e|-------------|------------------|-----------------|-------------------|
b|----5----5---|------6------6--5-|---5-----5---3---|------3------------|
g|--5----5-----|----5------5------|--5-----5--------|-----4------6-6-5--|
D|7----7-----7-|--7-----7---------|-5-----5---------|----5-----5--------|
A|-------------|------------------|-----------------|-------------------|
E|-------------|------------------|-----------------|-------------------|

Tap to rate this tab
# A B C D E F G H I J K L M N O P Q R S T U V W X Y Z