Song name
# A B C D E F G H I J K L M N O P Q R S T U V W X Y Z

Macklemore - Same Love tab

-----------------------------------------------------------------------------
                    SAME LOVE - Macklemore & Ryan Lewis
-----------------------------------------------------------------------------

Tabbed by GuItArFrEeK333


Wanted to do a full tab with all of the different piano parts. Most of it
translates to guitar pretty well and this is the way I play it. The 1,2,3,4 
above the staff in Verse 2 are to indicate these notes all fall on the 1 & 3 
beats. Notes in ( ) don't need to be played but can be. Listen to the song 
for the beat. Comments and suggestions are welcome!


Tuning: Standard


  Intro
e|-15-15--15--------------------15-15--15-----------------------------------|
B|------16----16-16-16--16-15-16-----16----16-16-16--16-15-16---------------|
G|----------17--------15-----------------17--------15-------------------15--|
D|-----------------------------------------------------------17-17-17-17--17|
A|--------------------------------------------------------------------------|
E|--------------------------------------------------------------------------|

e|--------------------------------------------------------------------------|
B|--------------------------------------------------------------------------|
G|--------------------------------------------------------------------------|
D|-15-18-17~----------------------------------------------------------------|
A|--------------------------------------------------------------------------|
E|--------------------------------------------------------------------------|




  Verse 1
e|--------------------------------------------------------------------------|
B|-12----12---------4----4-----------12----12---------4---4-----------------|
G|----11----8~---------5----11/12~------11-----8~-------5----8~-------------|
D|-----------------------------------------------------------8~-------------|
A|-----------------------------------------------------------6~-------------|
E|-12-------8~------4-------11~----------------8~-----4---------------------|

e|--------------------------------------------------------------------------|
B|-12----12---------4----4-----------12----12---------4---4-----------------|
G|----11----8~---------5----11/12~------11-----8~-------5----8~-------------|
D|-----------------------------------------------------------8~-------------|
A|-----------------------------------------------------------6~-------------|
E|-12-------8~------4-------11~------12--------8~-----4---------------------|
  When I was in the 3rd grade...

e|----------------------------6--8------------------------------------------|
B|-8-----8-----4-----8-----8--------8-----4----4----------------------------|
G|-8-----8-----5-----8-----8--------8-----5--5----8-------------------------|
D|-8-----10----6-----8-----8--------10----6-------8-------------------------|
A|-6-----------------6-----6----------------------6-------------------------|
E|-------8-----4--------------------8-----4---------------------------------|
  Trippin...yeah I guess she had a point...

e|--------------------------------------------------------------------------|
B|-12----12---------4----4-----------12----12---------4---4-----------------|
G|----11----8----------5----11/12-------11-----8--------5----8--------------|
D|-----------------------------------------------------------8--------------|
A|-----------------------------------------------------------6--------------|
E|-12-------8-------4-------11-------12--------8------4---------------------|
  For those that liked the same sex...

e|----------------------------6--8------------------------------------------|
B|-8-----8-----4-----8-----8--------8-----4----4----------------------------|
G|-8-----8-----5-----8-----8--------8-----5--5----8-------------------------|
D|-8-----10----6-----8-----8--------10----6-------8-------------------------|
A|-6-----------------6-----6----------------------6-------------------------|
E|-------8-----4--------------------8-----4---------------------------------|
  Playing God, aw nah here we go...




  Pre-Chorus
e|--------------------------------------------------------------------------|
B|-8--8---8--8---8--8---8--8------8--8---8--8---8--8---8--8-----------------|
G|-8--8---8--8---8--8---8--8------8--8---8--8---8--8---8--8-----------------|
D|-8--8---8--8---8--8---8--8------8--8---8--8---8--8---8--8-----------------|
A|-6------------------------------6-----------------------------------------|
E|------8------4------6----------------8------4------6----------------------|
  And I can't change...




  Chorus
e|--------------------------------------------------------------------------|
B|-8--8---8---8----9--9---8--8------8--8----8---8----9--9---8--8------------|
G|-8--8---8---8----8--8---8--8------8--8----8---8----8--8---8--8------------|
D|-8--8---8---8----8--8---8--8------8--8----8---8----8--8---8--8------------|
A|-6--------------------------------6--------------------4/6----------------|
E|-----6/8---------4---4/6---------------6/8---------4----------------------|
  And I can't change...

e|--------------------------------------------------------------------------|
B|-11--11--11--11--13--13--11--11--11--11--11--11--11--11--13--13--11--11---|
G|---12------12--------------12------12------12------12--------------12--12-|
D|-------13------13--13--13------13------13------13------13--13--13---------|
A|--------------------------------------------------------------------------|
E|--------------------------------------------------------------------------|
  She keeps me warm...




  Verse 2
e|-6----8------8--8--8--6---------------------------------------------------|
B|-8----8------9--9--9--8------8--9--8---------------------8----------------|
G|-8----8------8--8--8--8------8--8--8--8-----------8---10---8--------------|
D|-8----10--------------8------8--10-8--10------10--10-------8--------------|
A|-6-----------11-11-11-6------6--8--10----------------------6--------------|
E|------8-------------------------------8-----------8-----------------------|
  If I was gay...

e|-6---------------------------6--8-----------------------------------------|
B|-8-----8-----4-----8-----8--------8-----4----4----------------------------|
G|-8-----8-----5-----8-----8--------8-----5--5----8-------------------------|
D|-8-----10----6-----8-----8--------10----6-------8-------------------------|
A|-6-----------------6-----6----------------------6-------------------------|
E|-------8-----4--------------------8-----4---------------------------------|
  A culture founded from opression...

e|--------------------------------------------------------------------------|
B|-8--8----8----(8)(11)(8)--(8)-----------------8---------------------------|
G|-8--8----8--(10)-------(10)----5--5-----3-----8----8----5--5----3---------|
D|-8--8----10--------------------6--6-----5-----8----10---6--6----5---------|
A|-6--6-----------------------------------6-----6-----------------6---------|
E|---------8---------------------4--4-----6----------8----4--4----6---------|
  It's the same hate that's caused wars...

   1   2   3   4   1   2   3   4
e|-6------------------------------------------------------------------------|
B|-8-------8-------4-------8--------8--9--8---------------------------------|
G|-8-------8-------5-------8--------8--10-8--8-------10--8------8-----------|
D|-8-------10------6-------8--------8--8--8--10----------10-----8-----------|
A|-6-----------------------6--------6---------------------------6-----------|
E|---------8-------4-------------------------8-----------8------------------|
  Live on, and be yourself...

e|-3-----------3----3-------15--15--15--13------11--11----11----------------|
B|-4----4------4----4-------11--11--11--12------13--13----------------------|
G|-3----3------3----3-------------------12------13--13----12----------------|
D|-5----5------5----5-------13--13--13--12------13--13----13----------------|
A|-6----3-------------------13--13--13--10------11--11----10----------------|
E|-------------4----6-------------------------------------------------------|
  When everyone else is more comfortable remaining voiceless...




  Horn Solo
e|--------------------------------------------------------------------------|
B|-8--8---8--8---8--8---8--8------8--8---8--8---8--8---8--8-----------------|
G|-8--8---8--8---8--8---8--8------8--8---8--8---8--8---8--8-----------------|
D|-8--8---8--8---8--8---8--8------8--8---8--8---8--8---8--8-----------------|
A|-6------------------------------6-----------------------------------------|
E|------8------4------6----------------8------4------6----------------------|




  Chorus
e|--------------------------------------------------------------------------|
B|-8--8---8---8----9--9---8--8------8--8----8---8----9--9---8--8------------|
G|-8--8---8---8----8--8---8--8------8--8----8---8----8--8---8--8------------|
D|-8--8---8---8----8--8---8--8------8--8----8---8----8--8---8--8------------|
A|-6--------------------------------6--------------------4/6----------------|
E|-----6/8---------4---4/6---------------6/8---------4----------------------|
  And I can't change...

e|--------------------------------------------------------------------------|
B|-11--11--11--11--13--13--11--11--11--11--11--11--11--11--13--13--11--11---|
G|---12------12--------------12------12------12------12--------------12--12-|
D|-------13------13--13--13------13------13------13------13--13--13---------|
A|--------------------------------------------------------------------------|
E|--------------------------------------------------------------------------|
  She keeps me warm...




  Verse 3
e|--------------------------------------------------------------------------|
B|-8--8----8----(8)(11)(8)--(8)-----------------8---------------------------|
G|-8--8----8--(10)-------(10)----5--5-----3-----8----8----5--5----3---------|
D|-8--8----10--------------------6--6-----5-----8----10---6--6----5---------|
A|-6--6-----------------------------------6-----6-----------------6---------|
E|---------8---------------------4--4-----6----------8----4--4----6---------|
  We press play, don't press pause...

   1   2   3   4   1   2   3   4
e|-6------------------------------------------------------------------------|
B|-8-------8-------4-------8--------8--9--8---------------------------------|
G|-8-------8-------5-------8--------8--10-8--8-------10--8------8-----------|
D|-6-------10------6-------8--------8--8--8--10----------10-----8-----------|
A|-6-----------------------6--------6---------------------------6-----------|
E|---------8-------4-------------------------8-----------8------------------|
  (When kids are walking 'round the) hallway...

e|-------------------------------15--15--15--13------11--11----11-----------|
B|-8--8----8---------------------11--11--11--12------13--13-----------------|
G|-8--8----8------5--5-----3-----------------12------13--13----12-----------|
D|-8--8----10-----6--6-----5-----13--13--13--12------13--13----13-----------|
A|-6--6--------------------6-----13--13--13--10------11--11----10-----------|
E|---------8------4--4-----6------------------------------------------------|
  No law is gonna change us...




  Pre-Chorus
e|--------------------------------------------------------------------------|
B|-8--8---8--8---8--8---8--8------8--8---8--8---8--8---8--8-----------------|
G|-8--8---8--8---8--8---8--8------8--8---8--8---8--8---8--8-----------------|
D|-8--8---8--8---8--8---8--8------8--8---8--8---8--8---8--8-----------------|
A|-6------------------------------6-----------------------------------------|
E|------8------4------6----------------8------4------6----------------------|
  And I can't change...




  Chorus
e|--------------------------------------------------------------------------|
B|-11--11--11--11--13--13--11--11--11--11--11--11--11--11--13--13--11--11---|
G|---12------12--------------12------12------12------12--------------12--12-|
D|-------13------13--13--13------13------13------13------13--13--13---------|
A|--------------------------------------------------------------------------|
E|--------------------------------------------------------------------------|
  And I can't change...

  ***Guitar part = vocal harmony (kind of)***
e|--------------------------------------------------------------------------|
B|-11-----11----------11-----11-----------11-----11------------11-----11----|
G|---12-12---12---------12-12---12----------12-12---12-----------12-12---12-|
D|------13---13------------13---13-------------13---13--------------13---11-|
A|--------13-----------------13------------------13-------------------13----|
E|--------------------------------------------------------------------------|
  She keeps me warm...




  Outro
  (Play just low part/whole chord repeating until end notes)
e|----------------------------------------------------------------------(15)|
B|-8~--------------------------------------------------------------8~-------|
G|-8~---------------------------------------------------------8-10----------|
D|-8~----------------------------------------------------8-10---------------|
A|-6~--------------------------------------------------6--------------------|
E|--------------------------------------------------------------------------|
  Love is patient/I'm not crying on Sundays...




  Credits in Video
e|-6----8------8--8--8--6---------------------------------------------------|
B|-8----8------9--9--9--8------8--9--8---------------------8----------------|
G|-8----8------8--8--8--8------8--8--8--8-----------8---10---8--------------|
D|-8----10--------------8------8--10-8--10------10--10-------8--------------|
A|-6-----------11-11-11-6------6--8--10----------------------6--------------|
E|------8-------------------------------8-----------8-----------------------|
  
e|-6---------------------------6--8-----------------------------------------|
B|-8-----8-----4-----8-----8--------8-----4----4----------------------------|
G|-8-----8-----5-----8-----8--------8-----5--5----8-------------------------|
D|-8-----10----6-----8-----8--------10----6-------8-------------------------|
A|-6-----------------6-----6----------------------6-------------------------|
E|-------8-----4--------------------8-----4---------------------------------|
 
e|--------------------------------------------------------------------------|
B|-8--8----8----(8)(11)(8)--(8)-----------------8---------------------------|
G|-8--8----8--(10)-------(10)----5--5-----3-----8----8----5--5----3---------|
D|-8--8----10--------------------6--6-----5-----8----10---6--6----5---------|
A|-6--6-----------------------------------6-----6-----------------6---------|
E|---------8---------------------4--4-----6----------8----4--4----6---------|

   1   2   3   4   1   2   3   4
e|-6------------------------------------------------------------------------|
B|-8-------8-------4-------8--------8--9--8---------------------------------|
G|-8-------8-------5-------8--------8--10-8--8-------10--8------8-----------|
D|-6-------10------6-------8--------8--8--8--10----------10-----8-----------|
A|-6-----------------------6--------6---------------------------6-----------|
E|---------8-------4-------------------------8-----------8------------------|
  
e|-3-----------3----3-------15--15--15--13------11--11----11----------------|
B|-4----4------4----4-------11--11--11--12------13--13----------------------|
G|-3----3------3----3-------------------12------13--13----12----------------|
D|-5----5------5----5-------13--13--13--12------13--13----13----------------|
A|-6----3-------------------13--13--13--10------11--11----10----------------|
E|-------------4----6-------------------------------------------------------|

  Horn Solo
e|--------------------------------------------------------------------------|
B|-8--8---8--8---8--8---8--8------8--8---8--8---8--8---8--8-----------------|
G|-8--8---8--8---8--8---8--8------8--8---8--8---8--8---8--8-----------------|
D|-8--8---8--8---8--8---8--8------8--8---8--8---8--8---8--8-----------------|
A|-6------------------------------6-----------------------------------------|
E|------8------4------6----------------8------4------6----------------------|
 
  Horn Solo Continued
e|--------------------------------------------------------------------------|
B|-8--8---8---8----9--9---8--8------8--8----8---8----9--9---8--8------------|
G|-8--8---8---8----8--8---8--8------8--8----8---8----8--8---8--8------------|
D|-8--8---8---8----8--8---8--8------8--8----8---8----8--8---8--8------------|
A|(6)------------------------------(6)------------------(4/6)---------------|
E|----(6/8)-------(4)-(4/6)-------------(6/8)-------(4)---------------------|

  Horn Solo Continued
e|--------------------------------------------------------------------------|
B|-11--11--11--11--13--13--11--11--11--11--11--11--11--11--13--13--11--11---|
G|---12------12--------------12------12------12------12--------------12--12-|
D|-------13------13--13--13------13------13------13------13--13--13---------|
A|--------------------------------------------------------------------------|
E|--------------------------------------------------------------------------|


************************************

| /   slide up
| \   slide down
| h   hammer-on
| p   pull-off
| ~   vibrato
| +   harmonic
| x   Mute note
| b   Bend
| pb  Pre-bend
| br  Bend release
| pbr Pre-bend release
| brb Bend release bend

************************************
Tap to rate this tab
 
# A B C D E F G H I J K L M N O P Q R S T U V W X Y Z