Song name
# A B C D E F G H I J K L M N O P Q R S T U V W X Y Z

Macklemore - Same Love chords

Highlighted       Show chord diagrams
Capo 1
SAME LOVE - Macklemore
-----------------------------------------------------------------
Tabbed by:astodds
Leave suggestions in the comments.
This is my first tab so go easy on me! :)

Tuning: Standard



e|-5----5---------------------------------------------------------|
B|----7----3-----3-----3--6/7-------------------------------------|
G|------------------4---------------------------------------------|
D|-0----------------------0---------------------------------------|
A|---------2------------------------------------------------------|
E|---------------3------------------------------------------------|

e|-5----5------------------------------------------------------------|
B|----7----3-----3-----3---------------------------------------------|
G|------------------4-----2------------------------------------------|
D|-0----------------------0------------------------------------------|
A|---------2---------------------------------------------------------|
E|---------------3---------------------------------------------------|

D                                        Bm
When I was in the third grade I thought that I was gay,
G                                         D
'Cause I could draw, my uncle was, and I kept my room straight.
D                      Bm
I told my mom, tears rushing down my face
               G                                         D
She's like "Ben you've loved girls since before pre-k, trippin' "

The pattern continues throughout the song.


| /  slide up
| \  slide down
| H  hammer-on
| p  pull-off
| ~  vibrato
| +  harmonic
| x  Mute note
Tap to rate this tab
# A B C D E F G H I J K L M N O P Q R S T U V W X Y Z