Song name
# A B C D E F G H I J K L M N O P Q R S T U V W X Y Z

Macklemore - Neon Cathedral tab

"Neon Cathedral" by Macklemore
This is my first tab. I came up with this playing by ear along with the original song.
I tried to work out spacing to show if a note should ring for a longer or shorter period 
of time.
However, this is more of a template. Play this along with the original to get down the details
of how it's supposed to sound exatly.
No Capo
Standard Tuning

Verse 1:
  __________________________________________________________________________
E|--------------------------------------------------------------------------|
B|--------------------------------------------------------------------------|
G|-9----9-11-12-11-9-7-------9h11h12-9----9-11-12-11-9-7---9-7-----------9--|
D|---------------------9---------------------------------9-----9--7---9-----|
A|--------------------------------------------------------------------------|
E|--------------------------------------------------------------------------|
Verse 1 Cont:
  __________________________________________________________________________
E|--------------------------------------------------------------------------|
B|--------------------------------------------------------------------------|
G|---9-7-----7----9h12-9------9-11-12-11-9-7--------------------------------|
D|-9-------9---------------------------------9------------------------------|
A|--------------------------------------------------------------------------|
E|--------------------------------------------------------------------------|
Verse 1 Cont (This begins simultaneously with the tab above. You'll hear it listening to 
the song):
  __________________________________________________________________________
E|--------------------------------------------------------------------------|
B|----------------------------12-12-10-10---------------------12-12-10-10---|
G|---------------------9(x12)-------------9(x12)-7(x4)-9(x12)---------------|
D|--------------------------------------------------------------------------|
A|--------------------------------------------------------------------------|
E|--------------------------------------------------------------------------|
Verse 1 Cont (End of the first verse. A few seconds into the chorus):
  __________________________________________________________________________
E|--------------------------------------------------------------------------|
B|---------------------12-12-10-10------------------------------------------|
G|-9(x12)-7(x4)-9(x12)------------------------------------------------------|
D|--------------------------------------------------------------------------|
A|--------------------------------------------------------------------------|
E|--------------------------------------------------------------------------|
Chorus (This comes a few seconds into the chorus as soon as you play the last note from 
verse 1):
  __________________________________________________________________________
E|--------------------------------------------------------------------------|
B|--------------------------------------------------------------------------|
G|---------7-9----9------------7---9----7------------------7---9----7----9--|
D|-10----------------10----10-------------------10-----10-------------------|
A|--------------------------------------------------------------------------|
E|--------------------------------------------------------------------------|
Verse 2 (Repeat four times throughout the 2nd verse. The fourth time ends the 2nd verse 
and ends
a few seconds into the chorus again):
  __________________________________________________________________________
E|--------------------------------------------------------------------------|
B|--------------------------------------------------12-12-------------------|
G|-------------9-----7------12---12-11-----11-12----------------------------|
D|-9-----7------------------------------------------------------------------|
A|--------------------------------------------------------------------------|
E|--------------------------------------------------------------------------|
Chorus 2(once again starts a few seconds into the chorus. start playing after the last 
note of Verse 2.
Play the first part of the tab four times and then the second part once to wrap it up):
  __________________________________________________________________________
E|------------------------------|-------------------------------------------|
B|------------------------12-12-|-------------------------------------------|
G|-12---12-11-----11-12---------|-------------9-----------------------------|
D|------------------------------|-9-----7-----------------------------------|
A|------------------------------|-------------------------------------------|
E|------------------------------|-------------------------------------------|

Fin
Tap to rate this tab
# A B C D E F G H I J K L M N O P Q R S T U V W X Y Z