Song name
# A B C D E F G H I J K L M N O P Q R S T U V W X Y Z

Macrosick - Under These Skies tab

============================================================================
                       Under These Skies - Macosick
============================================================================
Tabbed by: fishy_sluggish
Email: psycho_slug07@hotmail.com
Tuning: Normal

      Intro:
   C#     F        A#      D     C#     D#
e|-------------------------------------------------|
B|-------------------------------------------------|
G|--6-6----10-10------------7-7-7-6-6----8-8-------| (Repeat)
D|--6-6----10-10----8-8-----7-7-7-6-6----8-8----8--|
A|--4-4----8--8-----8-8-----5-5-5-4-4----6-6----8--|
E|------------------6-6-------------------------6--|

Verses: (Played on "A" string alone)
A--0-1-1-0-1-1-0-1-1-0-1-1-2-2-1--

Chorus:
       C#    F   A#             D             C#        D#   G#/A# - G#/A# - G#
 Time flies        when you're living under these skies
(etc.)

Bridge:
e|---------------------------------------------------------------|
B|--7-6(let ring)------------6/14-13-13\6--6-6/13\6-6(let ring)--|
G|---------------------------------------------------------------|
D|---------------------------------------------------------------|
A|---------------------------------------------------------------|
E|---------------------------------------------------------------|

      Key:
| /  slide up
| \  slide down
| h  hammer-on
| p  pull-off
| ~  vibrato
| +  harmonic
| x  Mute note
============================================================================
Tap to rate this tab
# A B C D E F G H I J K L M N O P Q R S T U V W X Y Z