Guitaretab - guitar tabs
Song name
# A B C D E F G H I J K L M N O P Q R S T U V W X Y Z

Mad Caddies - Distress tab

Highlighted       Show chord diagrams
TAB:        Mad Caddies - Distress
Intro : 
e-----------------------------------------------|
b-----------------------------------------------|
g------------6-7--------------6-7-99-7----------|
d---4-5--7-7---------4-5--7-7-------------------|
a-/5--------------/5----------------------------|
E-----------------------------------------------|

e-----------------------------------------------|
b-----------------------------------------------|
g------------6-7--------------------------------|
d---4-5--7-7---------4-5--7-7-5-4-0-------------|
a-/5--------------/5----------------------------|
E-----------------------------------------------|
Verse:
 D  G  D  A  D  G 
            (A  D)  2X
Chorus:
D  A  h G 2X
heard my favorite song on the radio
i get so tired that i just don't know
is my whole life comin' down on me
or is my problem anxiety
she said

Bridge 1.: 
h  G  A  F#
spent the last few days, wide awake,
and i don't know how much more i can take,
i only have one life to live
and i want to give it all I can

Chorus: D  A  h G 3X

even though there's something that i didn't do right
we really want fatal fever got some feeling tonight

i want to know 
i wanna go
i wanna take myself so far away
i say night night time i'm gonna be your friend to know  (Bridge 2.:G  A)
[ Tab from: http://www.guitaretab.com/m/mad-caddies/28641.html ]
Verse:
 D  G  D  A  D  G 
            (A  D ) 2X
Chorus:
D  A  h G 2X
half past 2, i stepped into 
the place i wanna be
ohhh you might be to lay my head
i'm just to tryin to find some sleep

Bridge 1.: 
h  G  A  F#
well its been 3 days since I had a good meal
i havent been without a beer for 4
and i know when i wake up tomorrow yeah
i gotta hope that I've got space for one more

Chorus:
D  A  h G  5X

even though there's something that i didn't do right
we really want fatal fever got some feeling tonight    


i want to know 
i wanna go
i wanna take myself so far away
i say not this time, i'm gonna be afraid to say  (Bridge 2.:G  A)

Intro : 
e-----------------------------------------------|
b-----------------------------------------------|
g------------6-7--------------6-7-99-7----------|
d---4-5--7-7---------4-5--7-7-------------------|
a-/5--------------/5----------------------------|
E-----------------------------------------------|

Intro 
e-----------------------------------------------|
b-----------------------------------------------|
g------------6-7--------------------------------|
d---4-5--7-7---------4-5--7-7-5-4-0-------------|
a-/5--------------/5----------------------------|
E-----------------------------------------------|

Verse:
 D  G  D  A  D  G 
            (A  D)  2X

Chorus:
D  A  h G 4X

i want to know 
i wanna go
i wanna take myself so far away
i say not this time, i'm gonna be a friend to say

i want to know 
i wanna go
i wanna take myself so far away

BY KUDASEM gregor.vidmar@gmail.com
Related for Distress tab