Song name
# A B C D E F G H I J K L M N O P Q R S T U V W X Y Z

Mad Caddies - Im So Alone tab

i'm so alone

chords :

  G  |  C  |  F  |  G

  D  |  G  |  C  |  G


Riff 2 :

Guitare 1
E----------po-----------h-----------po------------
B---------/--\---------/--\--------/--\-----------
G---7-7---5--4---------2--4--5-5---4--2-----------
D----------------5-5-----------------------5-5----
A-------------------------------------------------
E-------------------------------------------------

Guitare2     po          h           po
E-----------/-\---------/--\--------/--\----------
B---8--8----6-5---------3--5--6-6---5--3--3-3-----
G----------------5-5------------------------------
D-------------------------------------------------
A-------------------------------------------------
E-------------------------------------------------


A wackeddog Production
thewackeddog@hotmail.com
http://www.happygrass.8m.com
-----------------------------------------------------------
Tap to rate this tab
# A B C D E F G H I J K L M N O P Q R S T U V W X Y Z