Guitaretab - guitar tabs
Song name
# A B C D E F G H I J K L M N O P Q R S T U V W X Y Z

Mad Caddies - Macho Nachos tab

Artist: Mad Caddies
Track: Macho Nachos
Hey everyone here's the Macho Nachos tab hope it helps
add me:
www.myspace.com/gazguitarkid438709

Intro/Bridge:
e-----------------|
B-----------------|
G-----------------|
D---2-----2--5--1-|
A5--2--5--2--3--3-|
E3--0--3--0-------|

Link:
e-----------------------------------------------------------------|
B-----------------------------------------------------------------|
G-----------------------------------------------------------------|
D----------22222----------22222-----5555511111----------22222-----|
A55555555552222255555555552222255555333333333355555555552222255555
E33333333330000033333333330000033333----------33333333330000033333

Link:(continued):
e-----------------|
B-----------------|
G-----------------|
D22222-----5--1-0-|
A22222555553------|
E0000033333-------|
[ Tab from: http://www.guitaretab.com/m/mad-caddies/28645.html ]
Verses:
P.M.:
e---------------------------------------------------------------------------|
B---------------------------------------------------------------------------|
G---------------------------------------------------------------------------|
D----------------------------555555555----------------------------555555555-|
A55555555555555555533333333333333333335555555555555555553333333333333333333
E3333333332222222221111111111---------3333333332222222221111111111---------

Pre-Chorus:
e------------------------|
B------------------------|
G------------------------|
D999999777777555555555555
A777777555555333333333333 repeat
E------------------------

Solo:
e------------------------------------------------------------------|
B--15--15--15--------15--15---------------15--15-12-------15--15---|
G14--14-------1212-14--14--12/4-777-554-14--14-----12/--4---12--12-|
D------------------------------------------------------------------|
A------------------------------------------------------------------|
E------------------------------------------------------------------|

Solo(continued):

e-----------------------------------------------------------|
B--------------------------------------------------6-8-10-8-|
G5554545554204200420042004200542542054254205425420--4-------|
D-------------------------------------------------5---------|
A-----------------------------------------------------------|
E-----------------------------------------------------------|

I'm not too sure if it's 100% correct and  I don't know the order but it'll do
Related for Macho Nachos tab
Macho Nachos chords by Mad Caddies