Guitaretab - guitar tabs
Song name
# A B C D E F G H I J K L M N O P Q R S T U V W X Y Z

Mad Caddies - Rockupation tab

-------------------------------------------------------------------------------
			     Rockupation Mad Caddies
-------------------------------------------------------------------------------
Tabbed by: RICHARD QUINN AKA SOFTCORE_PUNKMO
Email:

Tuning:STANDARD

e|------------------------5--------------------------------------------------|
B|-------------5-7-9-5-555--9-7-5-7-H9-5-------------------------------------|
G|---------------------------------------------------------------------------|
D|---------------------------------------------------------------------------|
A|---------------------------------------------------------------------------|
E|---------------------------------------------------------------------------|
RHYTHM STARTS.TOP THREE STRINGS IN THE FOLLOWING CHORDS
[ Tab from: http://www.guitaretab.com/m/mad-caddies/34167.html ]
e|---------7------------5------------ 7----------7---------------------------|
B|---------7------------5------------ 7----------7---------------------------|
G|---------7--9 X4-----5--6 X4------7--8 X4---79  X4---------------------|
D|---------7--9---------5--7----------7--9-------7-9-------------------------|
A|---------7------------5--7----------7--9-------7---------------------------|
E|---------7------------5-------------7----------7---------------------------|
SKA (HIGH) RHYTHM STARTS PLAY THE FOLLOWING CHORDS SPLIT THE STRUMMING AS ON TRACK

e|--------------4----------5------------7---------4--------------------------|
B|--------------5 X4------5-------X4---7------X4-5---X4---------------------|
G|--------------4----------6------------8---------4--------------------------|
D|-------------------------7------------9------------------------------------|
A|---------------------------------------------------------------------------|
E|---------------------------------------------------------------------------|
THIS IS ALL I HAVE SO FAR I WILL ADD ASAP THANKS N PLEASE BE WARNED I THINK THIS
IS 100%ACCURATE BUTS ITS MY FIRST TAB SO LAYOUT MAY BE WORNG !
Related for Rockupation tab