Guitaretab - guitar tabs
Song name
# A B C D E F G H I J K L M N O P Q R S T U V W X Y Z

Mad Capsule Markets - Sunny Beach Rd tab

-------------------------------------------------------------------------------
			     Sunny Beach Road - Mad Capsule Markets
-------------------------------------------------------------------------------
Tabbed by: The_Foo_Fighters
Email: philip_clough@hotmail.com

Tuning: Standard

Intro

e|--------------|
B|--------------|
G|--------------|
D|-7~-----------|
A|-5~-----------|
E|--------------|

Guitar Piece 1

e|-------------------------|
B|-------------------------|
G|-7--7--------------------|
D|-7--77--75--57-----------|
A|-5--57--75--57-----------|
E|-----5--53--35-----------|

Guitar Piece 2
[ Tab from: http://www.guitaretab.com/m/mad-capsule-markets/49822.html ]
e|-------------------------|
B|-------------------------|
G|-77774444----------------|
D|-7777444455557777--------|
A|-5555222255557777--------|
E|---------33335555--------|

Bridge

e|-------------------------------|
B|-------------------------------|
G|-4/7\4/7\4/7/-10-10\9\7--------|
D|-4/7\4/7\4/7/-10-10\9\7--------|
A|-2/5\2/5\2/5/-8--8-\7\5--------|
E|-------------------------------|

Order :-

Intro

Piece 1 x 2

Piece 2 x 2

Piece 2 (fast) x 2

Piece 1 x 2

Piece 2 x 2

Piece 1 x 2

Piece 2 x 2

Piece 2 (fast) x 2

Bridge x 16

Piece 2 x 2

Piece 1 x 6

Comments, suggestions to philip_clough@hotmail.com

| /  slide up
| \  slide down
| h  hammer-on
| p  pull-off
| ~  vibrato
| +  harmonic
| x  Mute note
===============================================================================
Related for Sunny Beach Rd tab
Advertisement will be closed in 10 seconds