Guitaretab - guitar tabs
Song name
# A B C D E F G H I J K L M N O P Q R S T U V W X Y Z

Mad Capsule Markets - Happy Ride tab

Song: Happy Ride
Tab by: a_fools_funeral@mindless.com

Tuning: D A D G B e


INTRO/ GUITAR 1
e ----------------------------------|
B ----------------------------------|
G ----------------------------------| X6
D ----------------------------------|
A ---5---7---5---7---5---7---5---7--|
D -7---7---7---7---7---7---7---7----|
PM . . . . . . . . . . . . . . . .

GUITAR 2/ COMES IN AFTER GUITAR 1 PLAYS RIFF TWICE
e -------------------------------------|
B -------------------------------------|
G -------------------------------------| X4
D -7-7-7-7-7-7-7-7--0-0-0-0--2-2-2-2---|
A -7-7-7-7-7-7-7-7--0-0-0-0--2-2-2-2---|
D -7-7-7-7-7-7-7-7--0-0-0-0--2-2-2-2---|
________________________________________________
VERSE PLAYED
e -------------------------------------|
B -------------------------------------|
G -------------------------------------| X16
D -7-7-7-7-7-7-7-7--0-0-0-0--2-2-2-2---|
A -7-7-7-7-7-7-7-7--0-0-0-0--2-2-2-2---|
D -7-7-7-7-7-7-7-7--0-0-0-0--2-2-2-2---|
________________________________________________
INTERLUDE/ GUITAR 1
e ----------------------------------|
B ----------------------------------|
G ----------------------------------| X2
D ----------------------------------|
A ---5---7---5---7---5---7---5---7--|
D -7---7---7---7---7---7---7---7----|
PM . . . . . . . . . . . . . . . .
[ Tab from: http://www.guitaretab.com/m/mad-capsule-markets/56458.html ]
[Then
BOTH GUITARS
e -------------------------------------|
B -------------------------------------|
G -------------------------------------| X4
D -7-7-7-7-7-7-7-7--0-0-0-0--2-2-2-2---|
A -7-7-7-7-7-7-7-7--0-0-0-0--2-2-2-2---|
D -7-7-7-7-7-7-7-7--0-0-0-0--2-2-2-2---|
________________________________________________
VERSE2
BOTH GUITARS
e -------------------------------------|
B -------------------------------------|
G -------------------------------------| X16
D -7-7-7-7-7-7-7-7--0-0-0-0--2-2-2-2---|
A -7-7-7-7-7-7-7-7--0-0-0-0--2-2-2-2---|
D -7-7-7-7-7-7-7-7--0-0-0-0--2-2-2-2---|
________________________________________________
VERSE3
BOTH GUITARS
e -------------------------------------|
B -------------------------------------|
G -------------------------------------| X4
D -7-7-7-7-7-7-7-7--0-0-0-0--2-2-2-2---|
A -7-7-7-7-7-7-7-7--0-0-0-0--2-2-2-2---|
D -7-7-7-7-7-7-7-7--0-0-0-0--2-2-2-2---|

e -------------------------------------|
B -------------------------------------|
G -------------------------------------| X12
D -9-9-9-9-9-9-9-9--2-2-2-2--4-4-4-4---|
A -9-9-9-9-9-9-9-9--2-2-2-2--4-4-4-4---|
D -9-9-9-9-9-9-9-9--2-2-2-2--4-4-4-4---|
_________________________________________________
OUTRO
GUITAR 1
e ----------------------------------|
B ----------------------------------|
G ----------------------------------| X8
D ----------------------------------|
A ---5---7---5---7---5---7---5---7--|
D -7---7---7---7---7---7---7---7----|
PM . . . . . . . . . . . . . . . .


THERE WE GO! ENJOY!
Related for Happy Ride tab
Advertisement will be closed in 10 seconds