Guitaretab - guitar tabs
Song name
# A B C D E F G H I J K L M N O P Q R S T U V W X Y Z

Mad Season - River Of Deceit tab

-|---------------------------------------------------|------------------------|
-|-3----------3h5p3---3-------------0----------------|------------------------|
-|-0----------------4---4\2p0-2/4p0-0---0------0---0-|-*0h2p0h2---------------|
-|---------------------------*0-----2----------0h2-0-|------------------------|
-|---------------------------------------------------|------------------------|
-|---------------------------------------------------|------------------------|
  x3                        *Note does not always appear *Last Time Only

-|-1-------------------------------3----------|-------------------------------|
-|-1-------------------------------3----------|-------------------------------|
-|-2---------2p0-------------------0----------|-------------------------------|
-|-3-------------0h2----------2p0--0----------|-------------------------------|
-|---------------------------------2----------|-------------------------------|
-|---------------------------------3----------|-------------------------------|
                                   ---strum G--

-|-1----1-----------------------3--2--3--|-------------------------------------|
-|-1----1-----------------------3--3--3--|-------------------------------------|
-|-2p0--0-----------------------0--0--0--|-------------------------------------|
-|-3----3--------------------------------|-------------------------------------|
-|---------------------------------------|-------------------------------------|
-|---------------------------------------|-------------------------------------|
 verse  ------strum chord------    play this 12--------------------------------| x simile

-|-3--5--8--7-7--8p7-7--8p7-7--8-|--------------------------------------------|
-|-3--5--8--8-8--8---8--8---8--8-|--------------------------------------------|
-|-0--0--0--0-0--0---0--0---0--0-|--------------------------------------------|
-|-------------------------------|--------------------------------------------|
-|-------------------------------|--------------------------------------------|
-|-------------------------------|--------------------------------------------|
 chorus 4x
[ Tab from: http://www.guitaretab.com/m/mad-season/21526.html ]
-|-1-----------------3-------3-------|----------------------------------------|
-|-1-----------------3---3h5-3-------|----------------------------------------|
-|-2p0---------------0---0---0-4\2p0-|----------------------------------------|
-|-3---------------------------------|----------------------------------------|
-|-----------------------------------|----------------------------------------|
-|-----------------------------------|----------------------------------------|
 Bridge 4x

-|-1-----------------3---------------|----------------------------------------|
-|-1-----------------3--3----3-3-0---|----------------------------------------|
-|-2p0---------------0--2b3*-3-3-0---|----------------------------------------|
-|-3---------------------------------|----------------------------------------|
-|-----------------------------------|----------------------------------------|
-|-----------------------------------|----------------------------------------|
  pre verse 2-play bridge once, then above once, and verse twice *hold bend

-|----------------------------------------------------------------|-----------|
-|----------------------------------------------------------------|-----------|
-|----------------------------------------------------------------|-----------|
-|----------------------------------------------------------------|-----------|
-|----------------------------------------------------------------|-----------|
-|----------------------------------------------------------------|-----------|
 verse 8 x adding sub. bridge part sometimes

-|----------------------------------------------------------|-----------------|
-|----------------------------------------------------------|-----------------|
-|----------------------------------------------------------|-----------------|
-|----------------------------------------------------------|-----------------|
-|----------------------------------------------------------|-----------------|
-|----------------------------------------------------------|-----------------|
  chorus 4 x

-|-1----------------------3-----------------|---------------------------------|
-|-1----------------------3-------8--8-8-8--|---------------------------------|
-|-2p0--------------------0-------7--7---7--|---------------------------------|
-|-3---------------------------5/9----------|---------------------------------|
-|------------------------------------------|---------------------------------|
-|------------------------------------------|---------------------------------|
  finish mixing up bridge and verse parts plus the one above

-|--------------------------0------|------------------------------------------|
-|-3h5p3---3----------------0------|------------------------------------------|
-|-------4---4\2p0-2/4p0----0------|------------------------------------------|
-|--------------------------2------|------------------------------------------|
-|---------------------------------|------------------------------------------|
-|---------------------------------|------------------------------------------|
 end.
Related for River Of Deceit tab
River Of Deceit chords by Mad Season