Song name
# A B C D E F G H I J K L M N O P Q R S T U V W X Y Z

Mad Season - Lifeless Dead tab

My little tab for this great song.. Without solos sorry :P Hope it helps enyway!

Riff at start and chorus

 e|----------------------------------|
 B|----------------------------------|
 G|----------------------------------|
 D|-----7--7--5----------------------|
 A|--------------6----0-3-4-5-5-0----|
 E|----------------------------------|

Verse:

"Lifeless dead, that unclean bed....."

 e|----------------------------|
 B|----------------------------|
 G|----------------------------|
 D|------5-7-5-7-----5-7-5-7---|  
 A|----------------------------|  
 E|----------------------------|

Play above (2x) then at the end of the second time add these
two chords:

 e|--------------|
 B|--------------|
 G|---10---9\----|
 D|---X----X-----|
 A|---8----7\----|
 E|--------------|

Play above a few times then play:

"Alone on dirty floor he slept...."

 e|----------------------|----------------------|
 B|----------------------|----------------------|
 G|----------------------|--10--9---5--5--4--2--|
 D|---5-7-5-7---5-7-5-7--|--X---X---X--X--X--2--|
 A|----------------------|--8---7---3--3--2--0--|
 E|----------------------|----------------------|

Bridge 4x

      "He....   Said....        She... Said..."      End on 4th time

 e|------------------------|-----------------------|---------|
 B|------------------------|-----------------------|---------|
 G|----12-12-12-11-11-11---|----7-7-7--6-6-6-------|--4-4-4--|
 D|----12-12-12-11-11-11---|----7-7-7--6-6-6-------|--4-4-4--|
 A|----10-10-10-9--9--9----|----5-5-5--4-4-4-------|--2-2-2--|
 E|------------------------|-----------------------|---------|

Solo comes in. Second guitar plays:

  4x
 e|----------------------------------|
 B|----------------------------------|
 G|----------------------------------|
 D|----------------------------------|
 A|-----7--7--5----------------------|
 E|--------------6----0-3-4-5-5-0----|

Then after the solo play this until the song ends.

      "Lifeless Dead...."
 e|----------------------|----------|
 B|----------------------|----------|
 G|----------------------|----------|
 D|----------------------|--10--9\--|
 A|---5-7-5-7---5-7-5-7--|--x---x---|
 E|----------------------|--8---7\--| 

Thats it..
Tap to rate this tab
 
# A B C D E F G H I J K L M N O P Q R S T U V W X Y Z