Song name
# A B C D E F G H I J K L M N O P Q R S T U V W X Y Z

Mad Sin - Speak No Evil tab

Help us improve GuitareTab! Take a short survey!
Mad Sin is a German Psychobilly band, they kick ass, but no one knows them, or at
least hasn't taken the time to acknowledge them. This is probably the first Mad
Sin tab ever put up on the internet. Check out Mad Sin's website at www.Madsin.com

  
Intro
------

Rythm Guitar strums an Em chord 4 times, then Lead kicks in with:

e|-15-20-15-20-15-----------------------------15-20-15-20-15------------------20
B|-----------------------16----18---13------------------------------16----18----
G|------------------------------------------------------------------------------
D|------------------------------------------------------------------------------
A|------------------------------------------------------------------------------
E|------------------------------------------------------------------------------

--------15-20-15-20-15---------15---------------------------------15-----------|
-------------------------------------18---16--13--------13--15----------15--13-|
-------------------------------------------------------------------------------|
-------------------------------------------------------------------------------|
-------------------------------------------------------------------------------|
-------------------------------------------------------------------------------|


Verse
------
RYTHM GUITAR VERSE [Chord Progression]

A AA A A x8, E EE E E x2, G GG G G x2, A AA A A x3

LEAD GUITAR VERSE RIFF

e|-------------------------------------------------------------------------0-|
B|-------------------------------------------------------------------------0-|
G|-------------------------------------------------------------------------0-|
D|-7-----------------7-----------------7-----------------7-----------------7-|
A|-7---7-7---7--7----7---7-7---7--7----7---7-7---7--7----7---7-7---7--7----7-|x2
E|h5---5-5---5--5---h5---5-5---5--5---h5---5-5---5--5---h5---5-5---5--5---h5-|

|------------------------------------------------------------------------| -->
|------------------------------------------------------------------------| -->
|------------------------------------------------------------------------| -->
|-2-----------------2-----------------5-----------------5----------------| -->
|-2---2-2---2--2----2---2-2---2--2----5---5-5---5--5----5---5-5---5--5---| -->
|h0---0-0---0--0---h0---0-0---0--0---h3---3-3---3--3---h3---3-3---3--3---| -->

|-------------------------------------------------------0-|
|-------------------------------------------------------0-|
|-------------------------------------------------------0-|
|-7-----------------7-----------------7-----------------7-|
|-7---7-7---7--7----7---7-7---7--7----7---7-7---7--7----7-|
|h5---5-5---5--5---h5---5-5---5--5---h5---5-5---5--5---h5-|

Chorus
-------

both guitars play this chord progression, followed by the riff

D DD D DD C CC C CC A AA A AA C CC C CC D DD D DD C CC C CC A AA A AA C CC C CC

e|-------------------------------------|
B|-------------------------------------|
G|-------------------------------------|    Then just wait for the bass to 
D|-5--/--7--------5-/-7--------5--/--7-|    finish up...
A|-3--/--5--------3-/-5--------3--/--5-|
E|-------------------------------------|

Bridge
-------

I'm not to sure about this, but I think rythm guitar plays this progression:

D7    B   A  G E |x3 --  G    A    E |x2

Lead Guitar plays a solo that I've yet to figure out, but here's a little riff
you can play in the meantime...

e|-9---9-9--9--9----7---5--3-0---0-0--0--0-|  |-3----5----0|
B|-----------------------------------------|  |------------|
G|-----------------------------------------|  |------------|
D|-----------------------------------------|  |------------|
A|-----------------------------------------|x3|------------|x2
E|-----------------------------------------|  |------------|

      SONGFLOW
     ----------

Intro x2
verse x2
chorus
verse x2
chorus
bridge x2
verse x2
chorus
A  A  A w/noise

Tabbed by Andrew Fox
Related for Speak No Evil tab