Song name
# A B C D E F G H I J K L M N O P Q R S T U V W X Y Z

Madball - Darkest Days tab

-------------------------------------------------------------------------------
			    DARKEST DAYS - Madball
-------------------------------------------------------------------------------
Tabbed by: Ste Stedz


Tuning: DADBGe

Verse
    
      PM--|     PM    PM  PM        PM     PM   PM     PM   PM
                                                                     4x
||------------------|-----------------|--------------|---------------||
||o-----------------|-----------------|--------------|--------------o||
||------------------|-----------------|--------------|---------------||
||------------------|-----------------|--------------|---------------||
||o-7-------10----5-|---8---8-7-8-7---|-3----3----5--|---0----3--5--o||
||--7-0-0-0-10--0-5-|-0-8-0-8-7-8-7-0-|-3--0-3--0-5--|-0-0--0-3--5---||



Chorus

     PM                             PM|      PM   PM     PM            PM|
|------------------|--------------------|--------------|-------------------|
|------------------|--------------------|--------------|-------------------|
|------------------|--------------------|--------------|-------------------|
|------------------|--------------------|--------------|-------------------|
|-3----2-(2)--(2)--|-(2)--(2)--(2)------|-3----5----0--|---3--(3)--(3)-----|
|-3--0-2-(2)--(2)--|-(2)--(2)--(2)--0-0-|-3--0-5--0-0--|-0-3--(3)--(3)-0-0-|


     PM                             PM|      PM   PM     PM            PM|
|------------------|--------------------|--------------|-------------------|
|------------------|--------------------|--------------|-------------------|
|------------------|--------------------|--------------|-------------------|
|------------------|--------------------|--------------|-------------------|
|-3----2-(2)--(2)--|-(2)--(2)--(2)------|-3----5----0--|---3--(3)--(3)-----|
|-3--0-2-(2)--(2)--|-(2)--(2)--(2)--0-0-|-3--0-5--0-0--|-0-3--(3)--(3)-0-0-|


                                     PM|      PM   PM     PM            PM|
|-------------------|--------------------|--------------|-------------------|
|-------------------|--------------------|--------------|-------------------|
|-------------------|--------------------|--------------|-------------------|
|-------------------|--------------------|--------------|-------------------|
|-2h3---2-(2)--(2)--|-(2)--(2)--(2)------|-3----5----0--|---3--(3)--(3)-----|
|-2h3-0-2-(2)--(2)--|-(2)--(2)--(2)--0-0-|-3--0-5--0-0--|-0-3--(3)--(3)-0-0-|


                                                                     D.S.
     PM                             PM|      PM   PM     PM            PM|
|------------------|--------------------|--------------|-------------------|
|------------------|--------------------|--------------|-------------------|
|------------------|--------------------|--------------|-------------------|
|------------------|--------------------|--------------|-------------------|
|-3----2-(2)--(2)--|-(2)--(2)--(2)------|-3----5----0--|---3--(3)--(3)-----|
|-3--0-2-(2)--(2)--|-(2)--(2)--(2)--0-0-|-3--0-5--0-0--|-0-3--(3)--(3)-0-0-|


Break

      PM--|   PM--|   PM----|   PM--|   PM  PM     PM   PM     PM
                                                                            4x
||------------------------|-------------------|--------------|--------------||
||o-----------------------|-------------------|--------------|-------------o||
||------------------------|-------------------|--------------|--------------||
||------------------------|-------------------|--------------|--------------||
||o-0-------0-------0-----|---0-------0---0---|-3----5----0--|---3----(3)--o||
||--0-0-0-0-0-0-0-0-0-0-0-|-0-0-0-0-0-0-0-0-0-|-3--0-5--0-0--|-0-3----(3)---||


Song Order

VERSE
CHORUS
VERSE
BREAK
CHORUS


| /  slide up
| \  slide down
| h  hammer-on
| p  pull-off
| ~  vibrato
| +  harmonic
| x  Mute note
===============================================================================
Tap to rate this tab
# A B C D E F G H I J K L M N O P Q R S T U V W X Y Z