Song name
# A B C D E F G H I J K L M N O P Q R S T U V W X Y Z

Madder Mortem - Rust Cleansing tab

Here it is. Enjoy. Played on 7string guitars in drop A-tuning. Enjoy!

Song: Rust Cleansing. 
Artist: Madder Mortem.
Album: Deadlands. 


e|15-15-14-14-------15-15-14-14-------15-15-14-14-15-15-14-14-------15-15-14-14-------15-15-14-14-|
B|------------11-11-------------11-11-------------------------11-11-------------11-11-------------|
G|------------------------------------------------------------------------------------------------|
D|------------------------------------------------------------------------------------------------|
A|------------------------------------------------------------------------------------------------|
E|------------------------------------------------------------------------------------------------|
A|------------------------------------------------------------------------------------------------|

e|15-15-14-14-------15-15-14-14-------15-15-14-14-15-15-14-14-------15-15-14-14-------15-15-14-14-|
B|------------12-12-------------12-12-------------------------12-12-------------12-12-------------|
G|------------------------------------------------------------------------------------------------|
D|------------------------------------------------------------------------------------------------|
A|------------------------------------------------------------------------------------------------|
E|------------------------------------------------------------------------------------------------|
A|------------------------------------------------------------------------------------------------|


e|15-15-14-14-------15-15-14-14-------15-15-14-14-15-15-14-14-------15-15-14-14-------15-15-14-14-|
B|------------11-11-------------11-11-------------------------11-11-------------11-11-------------|
G|------------------------------------------------------------------------------------------------|
D|------------------------------------------------------------------------------------------------|
A|------------------------------------------------------------------------------------------------|
E|------------------------------------------------------------------------------------------------|
A|------------------------------------------------------------------------------------------------|

e|15-15-14-14-------15-15-14-14-------15-15-14-14-15-15-14-14-------15-15-14-14-------15-15-14-14-|
B|------------12-12-------------12-12-------------------------12-12-------------12-12-------------|
G|------------------------------------------------------------------------------------------------|
D|------------------------------------------------------------------------------------------------|
A|------------------------------------------------------------------------------------------------|
E|------------------------------------------------------------------------------------------------|
A|------------------------------------------------------------------------------------------------|


e|15-15-14-14-------15-15-14-14-------15-15-14-14-15-15-14-14-------15-15-14-14-------15-15-14-14-|
B|------------11-11-------------11-11-------------------------11-11-------------11-11-------------|
G|------------------------------------------------------------------------------------------------|
D|------------------------------------------------------------------------------------------------|
A|------------------------------------------------------------------------------------------------|
E|------------------------------------------------------------------------------------------------|
A|------------------------------------------------------------------------------------------------|

e|15-15-14-14-------15-15-14-14-------15-15-14-14-12-12-10-10-8-8-10-10-12-12-14-14-12~-----------|
B|------------11-11-------------11-11-------------------------------------------------------------|
G|------------------------------------------------------------------------------------------------|
D|------------------------------------------------------------------------------------------------|
A|------------------------------------------------------------------------------------------------|
E|------------------------------------------------------------------------------------------------|
A|------------------------------------------------------------------------------------------------|

For corrections or comments, both negative and positive, email petter666@live.com! ^^
Again: Enjoy!
Tap to rate this tab
 
# A B C D E F G H I J K L M N O P Q R S T U V W X Y Z