Song name
# A B C D E F G H I J K L M N O P Q R S T U V W X Y Z

Made In Mexico - Farewell Myth tab

-------------------------------------------------------------------------------
			     FAREWELL MYTH - Made In Mexico
-------------------------------------------------------------------------------
Tabbed by: David Bierhaus
Email: dbierhaus01@yahoo.com
Band Website: http://madeinmexico.lotsofnoise.com/index.htm

Tuning: E-A-G-D-A-E

This is the song Farewell Myth by a band called Made In Mexico, you may know them from 
PS2 game Guitar Hero. Please note that the way I play it, I tune the B string down to an 
There are also a number of effects on the guitar in this song, duplicating the effects are up to you :)

Intro
e|---------|
A|----0-0--|
G|---2-2---|
D|---------|
A|-0-------|
E|---------|

e|-----------------------------------------------------------|
A|-----------0--0--------------0--0--------------0--0--------|
G|---2-2---2----2b-----4-4---4----2b-----5-5---5----2b-------|
D|-----------------------------------------------------------|
A|-0-----0------0----0-----0------0----0-----0------0--------|
E|-----------------------------------------------------------|

e|-----------------------------------------------------------|
A|-----------0--0--------------0--0------------2---2-----2---|
G|---4-4---4----2b-----2-2---2----2b-------------------------|
D|---------------------------------------0-2-2---2---2-2-----|
A|-0-----0------0----0-----0------0--------------------------|
E|-----------------------------------------------------------|

e|---------------------------------------------------|
A|---------------------------------------------------|
G|-2--4--4/5---2--5--5/7--5---5--4--(repeat 3 times)-|
D|-0--2--2/3---0--3--3/5--3---3--2-------------------|
A|---------------------------------------------------|
E|---------------------------------------------------|

  Riff I - Repeat 4 times
e|----------------------------|
A|----------------------------|
G|-4-4--4-4--2-4-5--2-5-7--5--|
D|-2-2--2-2--0-2-3--0-3-5--3--|
A|----------------------------|
E|----------------------------|

  Riff II (a)- Repeat 2 times
e|-----7-7-----7-7-----7-----8-8-----9-----8---|
A|-----7-7-----7-7-----7-----8-8-----9-----8---|
G|---------------------------------------------|
D|---------------------------------------------|
A|-5-7-----5-7-----5-7---5-7-----5-7---5-7-----|
E|---------------------------------------------|

  Riff II (b) - Play once
e|-----7-7-----7-7----7------------------------------------------------------|
A|-----7-7-----7-7----7------------------------------------------------------|
G|---------------------------------------------------------------------------|
D|---------------------------------------------------------------------------|
A|-5-7-----5-7-----5-7-------------------------------------------------------|
E|---------------------------------------------------------------------------|

Then play Riff I 3 times
Then Riff II (a) 4 times

Switch between Riffs I and II for the rest of the song, and that's pretty much it.


| b  bend
| /  slide up
| \  slide down
| h  hammer-on
| p  pull-off
| ~  vibrato
| +  harmonic
| x  Mute note
===============================================================================
Tap to rate this tab
# A B C D E F G H I J K L M N O P Q R S T U V W X Y Z