Song name
# A B C D E F G H I J K L M N O P Q R S T U V W X Y Z

Made Out Of Babies - Loosey Goosey tab

MADE OUT OF BABIES

LOOSEY GOOSEY

tabbed by dan (yellowledbetter_69@hotmail.co.uk)

DROPPED-D TUNING

intro/verse
|----------------------------------------------------------|
|----------------------------------------------------------|
|----------------------------------------------------------|
|----------------------------------------------------------|
|---0---0-0-0-0-0--0--7b8vvvvv---0-0-0-0-0-0--0--7b8vvvv---|
|---0---0-0-0-0-0--0--7b8vvvvv---0-0-0-0-0-0--0--7b8vvvv---|
 pm-----------------|            pm------------------------|

|-----------------------------------------------------|
|-----------------------------------------------------|
|-----------7---------7---------7---------7-7-8-5-7---|
|-----------7---------7---------7---------7-7-8-5-7---|
|-----------5---------5---------5---------5-5-6-3-5---|
|---0-0-0-0---0-0-0-0---0-0-0-0---0-0-0-0-------------|
chorus

|----------------------------------------------------------|
|----------------------------------------------------------|
|----------------------------------------------------4b5---|
|---0--0--7p6-0-6--0--0--0--0---0--0--7p6-0-6-0--0---------|
|---0--0--7p6-0-6--0--0--0--0---0--0--7p6-0-6-0--0---------|
|---0--0--7p6-0-6--0--0--0--0---0--0--7p6-0-6-0--0---------|
post-chorus   (the last bend bit is played only the first time)

|---------------------------------------------------------------------------|
|---------------------------------------------------------------------------|
|---------------------------------------------------------------------------|
|----------------------------9-9-9-9-9-9-9-9-9\8-8-8-8--5-5-5-5--6-6-6-6-6--|
|--11----11----11----11------9-9-9-9-9-9-9-9-9\8-8-8-8--5-5-5-5--6-6-6-6-6--|
|-----10----11----10----9b---9-9-9-9-9-9-9-9-9\8-8-8-8--5-5-5-5--6-6-6-6-6--|
break

that's about it. easy to figure out where each bit goes. there are small differences in 
post-chorus the next time it is played, but not worth me typing out.

any comments email me.
Tap to rate this tab
# A B C D E F G H I J K L M N O P Q R S T U V W X Y Z