Song name
# A B C D E F G H I J K L M N O P Q R S T U V W X Y Z

Made Out Of Babies - Bunny Boots tab

MADE OUT OF BABIES

BUNNY BOOTS

tabbed by dan (yellowledbetter_69@hotmail.co.uk)

DROP-D TUNING

|---------------------------------------------------|
|---------------------------------------------------|
|---7-7--7h8p7--7-7--7h8p7--7-7--7h8p7--7--0--h8----|
|---7-7--7------7-7--7------7-7--7------7--0--h8----|
|------------------------------------------0--h8----|
|---------------------------------------------------|
intro    play loosely

|-------------------------------------|----------------------|--------------|
|-------------------------------------|----------------------|--------------|
|---8-7--7--8-7--7--8-7--7--8-7--7--7-|-/8-8-8--8/10-10-10---|--------------|
|-------------------------------------|----------------------|--7-7-7-7\6-6-|
|---6-5--5--6-5--5--6-5--5--6-5--5--5-|-/6-6-6--6/-8--8--8---|--------------|
|-------------------------------------|----------------------|--7-7-7-7\6-6-|
verse                                  first 3 times            4th time

|------------------3------------|
|----1------1------4------4-----|
|----2----2---2----5----5---5---|
|----2--2----------5--5---------|
|----0-------------3------------|
|-------------------------------|
break

|---------------------------------------------------|
|---------------------------------------------------|
|---------------------------------------------------|
|---7--7--7------7-7--7---7--7-7--7------7--0--3----|
|---7--7--7------7-7--7---7--7-7--7------7--0--3----|
|---7--7--7h8p7--7-7--7h8p7--7-7--7h8p7--7--0--3----|
next part    the las t bar of this part is same as intro which is then repeated a few times after
    
                 not sure about these parts
|----------------|-------14----15-16--|--------13--------|-------------14-15-|
|----------------|-11h12----12--------|--10h11----11-10--|-16h17h19p17-------|
|----------------|--------------------|------------------|-------------------|
|----------------|--------------------|------------------|-------------------|
|--0-0--0-0--0-0-|--------------------|------------------|-------------------|
|--0-0--0-0--0-0-|--------------------|------------------|-------------------|
2nd break   (also outro

|--------------|
|------10------|    again, not so sure about this part
|--7-8----8-7--|
|--------------|
|--------------|
|--------------|
2nd break part continued

that's pretty much everything. some of it may be a little inaccurate but the
 weird guitar bit in the middle is really hard to get down, 
so that part is probably completely wrong. the intro seems to be 
two guitars and sounds slightly different to what i have put down, 
but it sounds ok to play along with.
Tap to rate this tab
 
# A B C D E F G H I J K L M N O P Q R S T U V W X Y Z