Song name
# A B C D E F G H I J K L M N O P Q R S T U V W X Y Z

Made Out Of Babies - How To Get Bigger tab

MADE OUT OF BABIES

HOW TO GET BIGGER

tabbed by dan (yellowledbetter_69@hotmail.co.uk)

DROP-D TUNING (not necessary, but makes it a little easier)

|---------------------------------------------------------------------------|
|---------------------------------------------------------------------------|
|-----------------------------11--------------------------------------------|
|----9vvvvvvvv------9vvvvvvvv-------10--9vvvvvvvv---------9vvvvvvvv--9-10---|
|----9vvvvvvvv------9vvvvvvvv-----------9vvvvvvvv---------9vvvvvvvv---------|
|----9vvvvvvvv------9vvvvvvvv-----------9vvvvvvvv---------9vvvvvvvv---------|
intro

|-----19------|
|-------------|
|-----16------|  trem pick this for 4 bars
|-------------|
|-------------|
|-------------|
verse part 1  guitar 1

|---------------------------|
|--17-15-15-17-15-15-17-15--| for four bars
|---------------------------|
|---------------------------|
|---------------------------|
|---------------------------|
verse part 1 guitar 2

|----19----17----16-----16------|
|-------------------------------|
|----16----14----13-----13------|
|-------------------------------|
|-------------------------------|
|-------------------------------|
verse part 2 trem pick all notes

the next part is difficult to figure out (i don't have a whammy bar) and is quite echo-ey
so I just hit any note and slide down until the end part which is the following:

|-------17------16--17---
|----15------15----------
|------------------------
|------------------------
|------------------------
|------------------------
into verse 2

back to verse parts, then the quiet bridge part again follwed by the 'into verse' part
and finally the intro part.

|-----------------------------------------------|
|-----------------------------------------------|
|---------------11------------------------------|
|-----9vvvvvvvvv-----10----9vvvvvvvvv--9--10----|
|-----9vvvvvvvvv-----------9vvvvvvvvv-----------|
|-----9vvvvvvvvv-----------9vvvvvvvvv-----------|
outro part 1

|------------------------------------------------|-----------|
|------------------------------------------------|-----------|
|----------------11\9vvvvvvv--------14-----16\---|-----------|
|----9vvvvvvvv-----------------------------------|-----9-----|
|----9vvvvvvvv----9\7vvvvvvv--------12-----14\---|-----9-----|
|----9vvvvvvvv-----------------------------------|-----9-----|
outro part 2  (until end)                         end on

that's it. any comments, suggestions etc email me.
Tap to rate this tab
# A B C D E F G H I J K L M N O P Q R S T U V W X Y Z