Song name
# A B C D E F G H I J K L M N O P Q R S T U V W X Y Z

Made Out Of Babies - Peew tab

MADE OUT OF BABIES 

PEEW

tabbed by dan (yellowledbetter_69@hotmail.co.uk)

DROP-D tuning

(I think it may have been recorded on a 7 string because it sounds a lot
heavier than my interpretation)

|-----------------------------------------------------------------|
|-----------------------------------------------------------------|
|-----------------------------------------------------------------|
|-----------------------------------------------------------------|
|----7-7--7--7--7----7-7--7--7--7----7-7--7--7--7---7-7-7-7-7-7---|
|----7-7--7--7--7----7-7--7--7--7----7-7--7--7--7---7-7-7-7-7-7---|
intro/verses   palm muted

|---------------------------------------|--------|
|---------------------------------------|--------|
|---------------------------------------|--------|
|---7--7--7--7--7-7---7--7--7--7--7-7---|--------|
|---7--7--7--7--7-7---7--7--7--7--7-7---|---7\---|
|---7--7--7--7--7-7---7--7--7--7--7-7---|---7\---|
chorus                            into verse 2

|---------------------------------------------------------------------------|
|---------------------------------------------------------------------------|
|---------------------------------------------------------------------------|
|---7--7--7--7-7-7---5--5--5--5--5-5-5---10-10-10-10-10-10--7--7--7--7-7-7--|
|---7--7--7--7-7-7---5--5--5--5--5-5-5---10-10-10-10-10-10--7--7--7--7-7-7--|
|---7--7--7--7-7-7---5--5--5--5--5-5-5---10-10-10-10-10-10--7--7--7--7-7-7--|
chorus 2

|--------------------------------------------------------|-----------|
|--------------------------------------------------------|-----------|
|--------------------------------------------------------|-----------|
|--------------------------------------------------------|-----------|
|--7-7--8-7-7-7-7-7-7-7-7-7---7-7--8-7-7-7-7-7-7-7-7-7---|---8-7-----|
|--7-7--8-7-7-7-7-7-7-7-7-7---7-7--8-7-7-7-7-7-7-7-7-7---|---8-7-----|
outro                                                         end on

that's it. probsbly not correct, but sounds ok to me.
any comments, corrections etc email me.
Tap to rate this tab
 
# A B C D E F G H I J K L M N O P Q R S T U V W X Y Z