Song name
# A B C D E F G H I J K L M N O P Q R S T U V W X Y Z

Made Out Of Babies - Ire Fire tab

MADE OUT OF BABIES

IRE FIRE

tabbed by dan (yellowledbetter_69@hotmail.co.uk)

DROP-D TUNING

|----------------------------------------------------------------|
|----------------------------------------------------------------|
|----7--6----------7--6----------7--6----------7--6--------------|
|-----------0-------------0-------------0-------------0vvvvvvvv--|
|----5--4---0------5--4---0------5--4---0------5--4---0vvvvvvvv--|
|-----------0-------------0-------------0-------------0vvvvvvvv--|
intro

|----------------------------------------------------------------------|
|--x-x-x-x-x-x-x-x-x-x-x-x--------x-x-x-x-x-x-x-x-x-x------------------|
|--x-x-x-x-x-x-x-x-x-x-x-x--------x-x-x-x-x-x-x-x-x-x------------------|
|--4-4-4-4-4-4-4-4-4-4-4-4--------4-4-4-4-4-4-4-4-4-4------------------|
|-----------------------------5-----------------------5---5-----7--9---|
|---------------------------5---9-----------------------5-----9--------|
into verse  (all harmonics)                    julie starts singing here

NOTE: not exact amount of strums on the 4's.
|--------------------------|----------------------------------|
|--x-x-x-x-x-x-x-x---------|---x-x-x-x-x-x--------------------|
|--x-x-x-x-x-x-x-x---------|---x-x-x-x-x-x--------------------|
|--4-4-4-4-4-4-4-4---------|---4-4-4-4-4-4--------------------|
|-------------------5---5--|-----------------5---5-----7--9---|
|---------------------5----|-------------------5-----9--------|
verse (harmonics) play this x3,      then this, and repeat other part as necessary

|---------------------------------------------------------------------------|
|---------------------------------------------------------------------------|
|--5/7-7-7--5/7-7-7--5/7-7-7--5/8-8-8--5/7-7-7--5/7-7-7----------------------|
|--5/7-7-7--5/7-7-7--5/7-7-7--5/8-8-8--5/7-7-7--5/7-7-7----------------------|
|--3/5-5-5--3/5-5-5--3/5-5-5--3/6-6-6--3/5-5-5--3/5-5-5----------------------|
|-------------------------------------------------------3p0-0-6-0-3p0-0-6-0-|
chorus

|--------------------------------------------------|
|--------------------------------------------------|
|--------------------------------------------------|
|--------------------------------------------------|
|------0--0-0-0-0-0-0-6p5-0-8p7-0-9h10--0--6-0--3--|
|------0--0-0-0-0-0-0-6p5-0-8p7-0-9h10--0--6-0--3--|
bridge  pm-----------|

repeat previous parts as necessary

first part of outro is same part of intro, followed by this until end:

|----------------------------------------------|
|----------------------------------------------|
|--9-10------9-10--14-----9-10------9-10--14---|
|--------0----------------------0--------------|
|--7--8--0---7--8--12-----7--8--0---7--8--12---|
|--------0----------------------0--------------|

that's everything. easy to figure out which parts go where. most of the harmonics are
approximate (and a bitch to figure out) but they sound ok.
any comments, suggestions etc email me.
Tap to rate this tab
# A B C D E F G H I J K L M N O P Q R S T U V W X Y Z