Song name
# A B C D E F G H I J K L M N O P Q R S T U V W X Y Z

Made Out Of Babies - Sugar tab

MADE OUT OF BABIES

SUGAR

tabbed by dan

TUNING (low to high): DADGAD

|-7-7-7-7-7-7-7--8--8--8--8--8--7-7-7-7--8--10-10-10-10-10-10--8--8--8--8-5-|
|-7-7-7-7-7-7-7--8--8--8--8--8--7-7-7-7--8--10-10-10-10-10-10--8--8--8--8-5-|
|-9-9-9-9-9-9-9-10-10-10-10-10--9-9-9-9-10--12-12-12-12-12-12-10-10-10-10-7-|
|-7-7-7-7-7-7-7--8--8--8--8--8--7-7-7-7--8--10-10-10-10-10-10--8--8--8--8-5-|
|-7-7-7-7-7-7-7--8--8--8--8--8--7-7-7-7--8--10-10-10-10-10-10--8--8--8--8-5-|
|---------------------------------------------------------------------------|
verses

|--7-7-7-7-7-7-7---7-7-7-7-7-7-7---|
|--7-7-7-7-7-7-7---7-7-7-7-7-7-7---|
|--9-9-9-9-9-9-9---9-9-9-9-9-9-9---|
|--7-7-7-7-7-7-7---7-7-7-7-7-7-7---|
|--7-7-7-7-7-7-7---7-7-7-7-7-7-7---|
|----------------------------------|
end verse/outro

|-10-10-10--9--9--9--9--7-7-7-7--10-7--13-13-13-13-13-13-13-13--|
|-10-10-10--9--9--9--9--7-7-7-7--10-7--13-13-13-13-13-13-13-13--|
|-12-12-12-11-11-11-11--9-9-9-9--12-9--15-15-15-15-15-15-15-15--|
|-10-10-10--9--9--9--9--7-7-7-7--10-7--13-13-13-13-13-13-13-13--|
|-10-10-10--9--9--9--9--7-7-7-7--10-7--13-13-13-13-13-13-13-13--|
|---------------------------------------------------------------|
chorus

that's about everything. it could be completely wrong though. i read an interview where
he said it is an alternate tuning, so this is my guess.
Tap to rate this tab
 
# A B C D E F G H I J K L M N O P Q R S T U V W X Y Z