Song name
# A B C D E F G H I J K L M N O P Q R S T U V W X Y Z

Made Out Of Babies - Wounded Rhino tab

Help us improve GuitareTab! Take a short survey!
MADE OUT OF BABIES

WOUNDED RHINO

tabbed by dan

DROP-D TUNING

|-------------------------------------------------------|------------------|
|-------------------------------------------------------|------------------|
|----------------13-13-13-13-13-13-13-13-13-13-13-13----|------------------|
|----0-----0--------------------------------------------|-----0----0vvvvvv-|
|----0-----0-----11-11-11-11-11-11-11-11-11-11-11-11----|-----0----0vvvvvv-|
|----0-----0--------------------------------------------|-----0----0vvvvvv-|
intro

|---------------------------------------------------|
|---------------------------------------------------|
|---------------------------------------------------|
|---------------------------------------------------|
|---------------------------------------------------|
|---11--11---12p11--11--12p11--11--12p11--11--11----|
verses

|-----------------------------------------------|
|-----------------------------------------------|
|-----------------------------------------------|
|----11\---2----2/10----11\---2-----2/10--------|
|----11\---2----2/10----11\---2-----2/10--------|
|----11\---2----2/10----11\---2-----2/10--------|
break

repeat those parts as necessary

|-----------------------------------------------------------|
|-----------------------------------------------------------|
|---7--7--7--7--7--7-/-10-10-10-10-11\10-10-10-11\10-10-10--|
|---7--7--7--7--7--7-/-10-10-10-10-11\10-10-10-11\10-10-10--|
|---5--5--5--5--5--5-/--8--8--8--8--9\-8--8--8--9\-8--8--8--|
|-----------------------------------------------------------|
chorus part 1      play a few times

|--------------------------------------------|
|--------------------------------------------|
|--7--7--7--7--7--5--4--4--4--4--4--4--4--5--|
|--7--7--7--7--7--5--4--4--4--4--4--4--4--5--|
|--5--5--5--5--5--3--2--2--2--2--2--2--2--3--|
|--------------------------------------------|
chorus part 2

|---------------------------------------------------------------|
|---------------------------------------------------------------|
|---10-10-10-10--14--14--14--14--12--12--12--12-10-10-10-10-10--|
|---------------------------------------------------------------|
|----8--8--8--8--12--12--12--12--10--10--10--10--8--8--8--8--8--|
|---------------------------------------------------------------|
this overdub is played over chorus part once

|-----------------------------------------|
|-----------------------------------------|
|---------13----------13-------13-----13--|
|---0-----13----0-----13----0--13--0--13--|
|---0-----11----0-----11----0--11--0--11--|
|---0-----------0-----------0------0------|
bit after chorus

|---------------------------------------------|
|---------------------------------------------|
|---12--\---12--\--12-\--10--\--10--\-10-\----|
|---12--\---12--\--12-\--10--\--10--\-10-\----|
|---10--\---10--\--10-\---8--\---8--\--8-\----|
|-------\-------\-----\------\------\----\----|
continued   play previous bit  until end

that's everything. the chorus parts change around a bit but east to figure out what goes where.
Related for Wounded Rhino tab