Song name
# A B C D E F G H I J K L M N O P Q R S T U V W X Y Z

Made Out Of Babies - Pirate tab

MADE OUT OF BABIES

PIRATE

tabbed by dan

DROP-D TUNING

for first part of intro just feedback/ make lots of noise

|-----------------------------------------------------------------------|
|-----------------------------------------------------------------------|
|-----------------------------------------------------------------------|
|----0--------4---3---0-------4---5--------0-------4----3--------0------|
|----0--------4---3---0-------4---5--------0-------4----3--------0------|
|----0--------4---3---0-------4---5--------0-------4----3--------0------|
intro

|-----------------|
|------------7----|
|---8----------8--|
|-----8---8-------|
|-------6---------|
|-----------------|
verse part 1   play a few times

|-----------------------|
|-----------------------|
|---8----7---10----9----|
|---8----7---10----9----|
|---6----5----8----7----|
|-----------------------|
verse part 2

|--------------------------------------------------|
|--------------------------------------------------|
|---6--6--6--6--6--6--6---5--5--5--5--5--5--5--5---|
|---6--6--6--6--6--6--6---5--5--5--5--5--5--5--5---|
|---4--4--4--4--4--4--4---3--3--3--3--3--3--3--3---|
|--------------------------------------------------|
chorus  play chords lots            

the rest is repeats.

Tap to rate this tab
# A B C D E F G H I J K L M N O P Q R S T U V W X Y Z