Song name
# A B C D E F G H I J K L M N O P Q R S T U V W X Y Z

Made Out Of Babies - Swarm tab

MADE OUT OF BABIES

SWARM

tabbed by dan

DROP-D TUNING

intro
all slides are guesses. just barre all the strings and slide up or down
|-------------19\\-------------2//------------19\\-------2/\--/19--|
|-------------19\\-------------2//------------19\\-------2/\--/19--|
|-------------19\\-------------2//------------19\\-------2/\--/19--|
|-------------19\\-------------2//------------19\\-------2/\--/19--|
|----0--0---0-19\\---0--0---0--2//---0--0---0-19\\--0-0--2/\--/19--|
|----0--0---0-19\\---0--0---0--2//---0--0---0-19\\--0-0--2/\--/19--|
 pm----------|      pm---------|    pm-------|     pm---|

verses
|---------------------------------------------------------------------|
|---------------------------------------------------------------------|
|-------------------------------------------------------7-7-7-7-7-7---|
|-------------------------------------------------------7-7-7-7-7-7---|
|---0--0--0--0--2-3--0--0--0--0--2-3--0--0--0--0--2-3---5-5-5-5-5-5---|
|---0--0--0--0--2-3--0--0--0--0--2-3--0--0--0--0--2-3---0-0-0-0-0-0---|
pm--------------------------------------------------|

|----------------------------------|
|----------------------------------|
|--11--11--10--10--/14---14---14---|
|----------------------------------|
|---9---9---8---8--/12---12---12---|
|----------------------------------|
chorus

|----------------------------------------------------------
|----------------------------------------------------------
|-------------2-------------2--------------2---------------
|----0-1----1------0-1----1-------0-1----1------0-1---0-1--
|--0------0------0------0-------0------0------0------------
|----------------------------------------------------------
post chorus part 1

|----------------------------------------|
|----------------------------------------|
|----------------------------------------|
|--0--2--3--0--3--5----0--2--3--0--3--5--|
|--0--2--3--0--3--5----0--2--3--0--3--5--|
|--0--2--3--0--3--5----0--2--3--0--3--5--|
post chorus 2    

|-------------------------------------------------------|
|-------------------------------------------------------|
|-------------------------------------------------------|
|----0---0--------0---0------0---0----0--2--3--0--3--5--|
|----0---0--------0---0------0---0----0--2--3--0--3--5--|
|----0---0--------0---0------0---0----0--2--3--0--3--5--|
break    after 'like thousand's of insects.....'      w/ feedback

rest is just repeats.

end with this
|-------------------------------|
|-------------------------------|
|-------------------------------|
|---0---0-----0---0-----0---0---|
|---0---0-----0---0-----0---0---|
|---0---0-----0---0-----0---0---|

that's about everything.
Tap to rate this tab
# A B C D E F G H I J K L M N O P Q R S T U V W X Y Z