Song name
# A B C D E F G H I J K L M N O P Q R S T U V W X Y Z

Madeline Juno - Like Lovers Do tab

Madeline Juno - Like Lovers Do

Tabbed by: rchrdqde

Tuning: Standard
Capo: 1st fret

my firts tab... i hope you like it! ;)


e|---------------------------------------------------------------------------|
B|---------------------------------------------------------------------------|
G|-----7-----7-----7----------6-----6-----6-----------11-----11-----11-------|
D|---0-----0----------------0-----0-----------------0------0-----------------|
A|---------------------------------------------------------------------------|
E|-7-----7-----7----------5-----5-----5----------10-----10-----10------------|

e|---------------------------------------------------------------------------|
B|---------------------------------------------------------------------------|
G|-----4----------------6/7--------------------------------------------------|
D|---0----------------0------------------------------------------------------|
A|---------------------------------------------------------------------------|
E|-3-----3----------5--------------------------------------------------------|

Tap to rate this tab
# A B C D E F G H I J K L M N O P Q R S T U V W X Y Z