Mademoiselle K - Ca Me Vexe tab

Mademoiselle K 
Ca me vexe
Extrait de l'album "Ca me vexe"

Fourni par Awror



e|-------------------------------0-3-0-2--|
B|--0-3-0-1---0-3-0-1---0-3-0-1-----------|
G|----------------------------------------|
D|----------------------------------------|
A|----------------------------------------|
E|----------------------------------------|

Personne t'aime 
Ah ouais j'me disais bien 
Personne t'aime
Ah ouais j'me disais bien 

             Em               G
On m'appelle pas, on m'invite pas
             A              A#
Dans les soirées watchi watcha
               Em               G
Je dois pas sentir comme il faudrait
     A            A#    G Em 
L'argent et le succès


Refrain:
         Em
Et ça me vexe
         G
Et ça me vexe
         A
Et ça me vexe
      A#     G Em
Ca me vexe 
Em  G  A  A#         
Ah ah ah ah (4x)

J'ai pris ma tenue de combat
Avec ça vous ne ferez pas le poids
J'ai payé quand-même un peu cher
Pour un truc qui laisse dans la galère 
J'ai changé plein d'fois d'messagerie
Mais personne m'a encore dit oui 
On t'appelera, t'inquiète pas
Si ça nous plaît
Ouais ouais c'est ça
Je dois pas sentir comme il faudrait 
L'argent et le succès 

Refrain

J'veux qu'on me lèche sur la vitrine          2ème guitare
J'veux qu'on me dise "t'es bonne Katerine!"   e|-0-3-0--0-3-5--0-3-0--0-3-5-|
J'voudrais signer des autographes
Qu'on m'adore même quand j'fais des gaffes
J'ai changé plein d'fois d'messagerie
Alors pourquoi personne m'a dit oui 
On t'appellera bla bla bla bla
Si ça nous plaît 
Ouais ouais c'est ça 
J'dois pas sentir comme il faudrait 
Le money et le succès 

Refrain

Solo: 
e|--0-2-3-5-3-2-3-0--0--0----0-2-3-5-3-2-3-5--3--2--| } 2x
B|--------------------------------------------------|  
G|--------------------------------------------------| 
D|--------------------------------------------------|
A|--------------------------------------------------| 
E|--------------------------------------------------|

e|--3-3-7-5-----7-5-----7-5-----7-5-----7-5--|
B|----------7-8-----7-8-----7-8-----7-8------|
G|-------------------------------------------|
D|-------------------------------------------|
A|-------------------------------------------|
E|-------------------------------------------|


On m'appelle pas, on m'invite pas 
Dans les soirées watchi watcha
On m'appelle pas, on m'invite pas 
Dans les soirées watchi watcha ah ah ah ah
On m'appelle pas? On m'invite pas dans les soirées? 
Ouais ben tant pis pour toi ah ah ah ah ah ah.          

Cached since : 2011-02-21 08:04:46
Tap to rate this tab
 
# A B C D E F G H I J K L M N O P Q R S T U V W X Y Z