Song name
# A B C D E F G H I J K L M N O P Q R S T U V W X Y Z

Madi Diaz - Love You Now tab

Tuning: Drop D
You can figure out the timing and strumming here!: http://www.youtube.com/watch?v=M44mk5eY5Q4

Intro/Verse:
e|-x--x--x--|-----x-|
B|-x--x--x--|-----x-|
G|-4--6--7--|-11--4-|
D|-0--0--0--|-----0-|
A|-5--7--9--|-12--5-|
D|-5--7--9--|-12--5-|

Chorus:
e|-x--x--x--x--x---x--x--x--2--x--x--x--x-|
B|-x--x--x--x--x---x--x--x--3--x--x--x--x-|
G|-4--6--4--6--7--4--6--7---2--6--4--7--6-|
D|-0--0--0--0--0---0--0--0-----0--0--0--0-|
A|-5--7--5--7--9---5--7--9-----7--5--9--7-|
D|-5--7--5--7--9---5--7--9-----7--5--9--7-|

Verse

Chorus

Bridge:
e|-------------------------------------------------|
B|-------------------------------------------------|
G|-------------------------------------------------|
D|---0---0---0---0---0---0---0---0---0---0---0---0-|   repeat 4x
A|-------------------------------------------------|
D|-2---2---2---2---4---4---5---5---5---5---7---7---|

Chorus
Tap to rate this tab
# A B C D E F G H I J K L M N O P Q R S T U V W X Y Z