Song name
# A B C D E F G H I J K L M N O P Q R S T U V W X Y Z

Madina Lake - Here I Stand tab

Highlighted       Show chord diagrams
Madina Lake
Here I Stand
From Them Through Us Through You
2007
Submitted by: paramore_fans@yahoo.com

Key: Eb

Tuning: Standard EADGBe

Chords used:
Eb -  x68886
Bb -  x13331
Cm -  x35543
G# -  466544
G/B - x254xx
Gm -  355333
Fm -  133111


Intro:

Piano:

       G#          Bb       G/B
e|-18----------|----------|-----|
B|----16-18-16-|-15-16-16-|-----|
G|-------------|----------|-4---|
D|-------------|----------|-5---|
A|-------------|-1--------|-2---|
E|--4----------|----------|-----|
       x2


Distortion: Cm---G#-Bb

Guitar 2: While doing distortion
e|--------------------------|
B|--------------------------|
G|-8-8-8--7--8--10--8-------|
D|-x-x-x--x--x---x--x-------| x4
A|-6-6-6--5--6---8--6-------|
E|--------------------------|


Verse 1:
         Cm
My hands shake cos today
  G#
I know you're gonna
Gm
break my heart and
Cm
  My life without you in it
Is a life thats
not worth living
G#
I'll be strong but I wish
      Gm
I was someone else
           G#   Bb
Anyone but me tonight


Chorus:
        Eb
Here I stand (Here I stand)
     Fm
All alone (Here I stand)
  Cm
Tonight (Here I stand)
And I wish I was strong
          Eb
enough to breathe (Here I stand)
        Fm
Without you (Here I stand)
      G#
In my life (Here I stand)
      Bb          G/B
And I wish I was anyone but me


Guitar 2: While doing Chorus
e|-----6--4--3--3-|-11--10--11-
B|-3h4------------|------------
G|----------------|------------
D|----------------|------------
A|----------------|------------
E|----------------|------------
        x7


Distortion: Cm---G#-Bb

Guitar 2: While doing distortion
e|--------------------------|
B|--------------------------|
G|-8-8-8--7--8--10--8-------|
D|-x-x-x--x--x---x--x-------| x4
A|-6-6-6--5--6---8--6-------|
E|--------------------------|

Verse 2:
         Cm                   G#
So I'll start to pretend I'm ok
               Gm
But you should know by now that
Cm
  My life is smoke and mirrors
One thing is crystal clear
     G#
That I'm the one wishing
      Gm
I was someone else
           G#   Bb
Anyone but me tonight


(Repeat Chorus)


Interlude: Cm--


Bridge:
          Eb
(Where do we go?)
Cm          Eb
  (Where do we go?)
Cm          Bb            G#
  Inside I start to fall apart
         Gm  Cm
(Where do we go?)
            Bb          G#
And I'll pretend I'm holding on
         Gm  Cm
(Where do we go?)
             Bb              G#
I guess I'll bleed in silence
      Gm    G#
(In silence)
                             Bb
I guess I'll bleed in silence


(Repeat Chorus twice)
Tap to rate this tab
# A B C D E F G H I J K L M N O P Q R S T U V W X Y Z