Song name
# A B C D E F G H I J K L M N O P Q R S T U V W X Y Z

Madina Lake - Wait Till Sunrise tab

INTRO:
E:-------------------------------|
B:-------------------------------|
G:-------------------------------|
D:---0--0--0--0--0--0--0--0--0--0|x2
A:--2--2--0--0--0--0--4--4--4--4-|
E:-3--3--0--0--2--2--5--5--5--5--|

VERSE:
E:-------------------------------|
B:-------------------------------|
G:-------------------------------|
D:---0--0--0--0--0--0--0--0--0--0|x2
A:--2--2--0--0--0--0--4--4--4--4-|
E:-3--3--0--0--2--2--5--5--5--5--|

SOLO:
E:----------------------------|
B:3333333555555577777779999999|-on the nine bend
G:----------------------------|
D:----------------------------|
A:----------------------------|
E:----------------------------|
CHORUS:(distortion)
E:----------------------------------------------------------------|
B:----------------------------------------------------------------|
G:----------------------------------------------------------------|
D:-0-0-0-0-0-0-0-0-0-0-0-0-0-0-0-0-0-0-0-0-0-0-0-0-0-0-0-0-0-0-0-0|X4
A:-2-2-2-2-2-2-2-2-0-0-0-0-0-0-0-0-0-0-0-0-0-0-0-0-4-4-4-4-4-4-4-4|
E:-3-3-3-3-3-3-3-3-0-0-0-0-0-0-0-0-2-2-2-2-2-2-2-2-5-5-5-5-5-5-5-5|

OUTRO:(CLEAN)
E:-----------|
B:-----------|
G:-0--0--0--0|
D:-0--0--0--0|
A:-2--0--0--4|
E:-3--0--2--5|

Tap to rate this tab
# A B C D E F G H I J K L M N O P Q R S T U V W X Y Z