Song name
# A B C D E F G H I J K L M N O P Q R S T U V W X Y Z

Madina Lake - From Them Through Us To You tab

Basically, this is a compilation of 5* tabs for the album, which I put into Drop 
C, so that you don't have to change tuning if you only have 1 electric like me :(
Feel free to rate and comment truthfully, I will edit any updates suggested to me
This tab will fit an A4 page perfectly if you ajust the page set up boundries to 0.5cm each
And lastly, enjoy some great music :)

Here I Stand
Intro: (After the piano)
d|---------------------------------------------------|
A|---------------------------------------------------|
F|------10----10--------9----10-----12----10-10-10---| x3
C|-------x-----x--------x-----x------x----10-10-10---|
G|-0--0--8--0--8--0--0--7--0--8--0--10--0--8--8--8---|
C|-0--0-----0-----0--0-----0-----0------0------------|

d|---------------------------------------------------|
A|---------------------------------------------------|
F|--------10----10--------9-----5-------5--5--5--5---|
C|---------x-----x--------x-----x-------5--5--5--5---|
G|-10--10--8--0--8--0--0--7--0--3----0--3--3--3--3---|
C|-10--10-----0-----0--0-----0-------0---------------|
PM                                   -

Verse
d|---------------------------------------------------|
A|---------------------------------------10----------|
F|------10----10--------9----10----12-----9----------|
C|------10----10-------10----10----10----10----------|
G|-x--x-----x-----x--x-----x-----x-----x-----x--x----|
C|-0--0-----0-----0--0-----0-----0-----0-----0--0----|
PM -  -     -     -  -     -     -     -     -  -

d|---------------------------------------------------|
A|---------------------------------------------------|
F|------10----10--------9----10----12----10----------|
C|------10----10-------10----10----10----10----------|
G|-x--x-----x-----x--x-----x-----x-----x-----x--x----|
C|-0--0-----0-----0--0-----0-----0-----0-----0--0----|
PM -  -     -     -  -     -     -     -     -  -

d|---------------------------------------------------|
A|---------------------------------------------------|
F|------10----10--------9----10----12----10----------|
C|------10----10-------10----10----10----10----------|
G|-8--8-----8-----8--8-----8-----8-----8-----8--8----|
C|-8--8-----8-----8--8-----8-----8-----8-----8--8----|
PM -  -     -     -  -     -     -     -     -  -

d|---------------------------------------------------|
A|---------------------------------------------------|
F|------10----10--------9-----9--------9h10p9----9\--|
C|------10----10-------10----10---------------10-----|
G|-7--7-----7-----7--7-----7-----7--7----------------|
C|-7--7-----7-----7--7-----7-----7--7----------------|
PM -  -     -     -  -     -     -  -

For the 2nd time through, the guitar seems to sound heavier. 
d|---------------------------------------------------|
A|---------------------------------------10----------|
F|------10----10--------9----10----12-----9----------|
C|------10----10-------10----10----10----10----------|
G|-0--0-----0-----0--0-----0-----0-----0-----0--0----|
C|-0--0-----0-----0--0-----0-----0-----0-----0--0----|
PM -  -     -     -  -     -     -     -     -  -

d|---------------------------------------------------|
A|---------------------------------------------------|
F|------10----10--------9----10----12----10----------|
C|------10----10-------10----10----10----10----------|
G|-0--0-----0-----0--0-----0-----0-----0-----0--0----|
C|-0--0-----0-----0--0-----0-----0-----0-----0--0----|
PM -  -     -     -  -     -     -     -     -  -

d|---------------------------------------------------|
A|---------------------------------------------------|
F|------10----10--------9----10----12----10----------|
C|------10----10-------10----10----10----10----------|
G|-8--8-----8-----8--8-----8-----8-----8-----8--8----|
C|-8--8-----8-----8--8-----8-----8-----8-----8--8----|
PM -  -     -     -  -     -     -     -     -  -

d|---------------------------------------------------|
A|---------------------------------------------------|
F|------10----10--------9-----9--------9--9--9--9----|
C|------10----10-------10----10-------10-10-10-10----|
G|-7--7-----7-----7--7-----7-----7--7--7--7--7--7----|
C|-7--7-----7-----7--7-----7-----7--7--7--7--7--7----|
PM -  -     -     -  -     -     -  -

Chorus: 
d|---------------------------------------------------|
A|---------------------------------------------------|
F|---------------------------------------------------|
C|-3--3---3--3--3---3--3--3---3--3--3---3------------|
G|-3--3---3--3--3---3--3--3---3--3--3---3------------|
C|-3--3---3--3--3---3--3--3---3--3--3---3------------|

d|---------------------------------------------------|
A|---------------------------------------------------|
F|---------------------------------------------------|
C|-5--5---5--5--5---5--5--5---5--5--5---5------------|
G|-5--5---5--5--5---5--5--5---5--5--5---5------------|
C|-5--5---5--5--5---5--5--5---5--5--5---5------------|

d|---------------------------------------------------|
A|---------------------------------------------------|
F|---------------------------------------------------|
C|-0--0---0--0--0---0--0--0---0--0--0---0------------|
G|-0--0---0--0--0---0--0--0---0--0--0---0------------|
C|-0--0---0--0--0---0--0--0---0--0--0---0------------|

d|---------------------------------------------------|
A|---------------------------------------------------|
F|---------------------------------------------------|
C|-0--0---0--0--0---0--0--0---0--0--0---0------------|
G|-0--0---0--0--0---0--0--0---0--0--0---0------------|
C|-0--0---0--0--0---0--0--0---0--0--0---0------------|

d|---------------------------------------------------|
A|---------------------------------------------------|
F|---------------------------------------------------|
C|-3--3---3--3--3---3--3--3---3--3--3---3------------|
G|-3--3---3--3--3---3--3--3---3--3--3---3------------|
C|-3--3---3--3--3---3--3--3---3--3--3---3------------|

d|---------------------------------------------------|
A|---------------------------------------------------|
F|---------------------------------------------------|
C|-5--5---5--5--5---5--5--5---5--5--5---5------------|
G|-5--5---5--5--5---5--5--5---5--5--5---5------------|
C|-5--5---5--5--5---5--5--5---5--5--5---5------------|

d|---------------------------------------------------|
A|---------------------------------------------------|
F|---------------------------------------------------|
C|-8--8---8--8--8---8--8--8---8--8--8---8------------|
G|-8--8---8--8--8---8--8--8---8--8--8---8------------|
C|-8--8---8--8--8---8--8--8---8--8--8---8------------|

d|---------------------------------------------------|
A|---------------------------------------------------|
F|---------------------------------------------------|
C|-10-10-10-10-10-10-10-10-11-11-11-11-11-11-11-11---|
G|-10-10-10-10-10-10-10-10-11-11-11-11-11-11-11-11---|
C|-10-10-10-10-10-10-10-10-11-11-11-11-11-11-11-11---|

Intro:
d|---------------------------------------------------|
A|---------------------------------------------------|
F|------10----10--------9----10-----12----10-10-10---| x3
C|-------x-----x--------x-----x------x----10-10-10---|
G|-0--0--8--0--8--0--0--7--0--8--0--10--0--8--8--8---|
C|-0--0-----0-----0--0-----0-----0------0------------|

d|---------------------------------------------------|
A|---------------------------------------------------|
F|--------10----10--------9-----5-------5--5--5--5---|
C|---------x-----x--------x-----x-------5--5--5--5---|
G|-10--10--8--0--8--0--0--7--0--3----0--3--3--3--3---|
C|-10--10-----0-----0--0-----0-------0---------------|
PM                                   -

Verse 2:
d|---------------------------------------------------|
A|---------------------------------------10----------|
F|------10----10--------9----10----12-----9----------|
C|------10----10-------10----10----10----10----------|
G|-x--x-----x-----x--x-----x-----x-----x-----x--x----|
C|-0--0-----0-----0--0-----0-----0-----0-----0--0----|
PM -  -     -     -  -     -     -     -     -  -

d|---------------------------------------------------|
A|---------------------------------------------------|
F|------10----10--------9----10----12----10----------|
C|------10----10-------10----10----10----10----------|
G|-x--x-----x-----x--x-----x-----x-----x-----x--x----|
C|-0--0-----0-----0--0-----0-----0-----0-----0--0----|
PM -  -     -     -  -     -     -     -     -  -





d|---------------------------------------------------|
A|---------------------------------------------------|
F|------10----10--------9----10----12----10----------|
C|------10----10-------10----10----10----10----------|
G|-8--8-----8-----8--8-----8-----8-----8-----8--8----|
C|-8--8-----8-----8--8-----8-----8-----8-----8--8----|
PM -  -     -     -  -     -     -     -     -  -

d|---------------------------------------------------|
A|---------------------------------------------------|
F|------10----10--------9-----9--------9h10p9----9\--|
C|------10----10-------10----10---------------10-----|
G|-7--7-----7-----7--7-----7-----7--7----------------|
C|-7--7-----7-----7--7-----7-----7--7----------------|
PM -  -     -     -  -     -     -  -

d|---------------------------------------------------|
A|---------------------------------------10----------|
F|------10----10--------9----10----12-----9----------|
C|------10----10-------10----10----10----10----------|
G|-0--0-----0-----0--0-----0-----0-----0-----0--0----|
C|-0--0-----0-----0--0-----0-----0-----0-----0--0----|
PM -  -     -     -  -     -     -     -     -  -

d|---------------------------------------------------|
A|---------------------------------------------------|
F|------10----10--------9----10----12----10----------|
C|------10----10-------10----10----10----10----------|
G|-0--0-----0-----0--0-----0-----0-----0-----0--0----|
C|-0--0-----0-----0--0-----0-----0-----0-----0--0----|
PM -  -     -     -  -     -     -     -     -  -

d|---------------------------------------------------|
A|---------------------------------------------------|
F|------10----10--------9----10----12----10----------|
C|------10----10-------10----10----10----10----------|
G|-8--8-----8-----8--8-----8-----8-----8-----8--8----|
C|-8--8-----8-----8--8-----8-----8-----8-----8--8----|
PM -  -     -     -  -     -     -     -     -  -

d|---------------------------------------------------|
A|---------------------------------------------------|
F|------10----10--------9-----9--------9--9--9--9----|
C|------10----10-------10----10-------10-10-10-10----|
G|-7--7-----7-----7--7-----7-----7--7--7--7--7--7----|
C|-7--7-----7-----7--7-----7-----7--7--7--7--7--7----|
PM -  -     -     -  -     -     -  -

Chorus: Same as before!
d|---------------------------------------------------|
A|---------------------------------------------------|
F|---------------------------------------------------|
C|-3--3---3--3--3---3--3--3---3--3--3---3------------|
G|-3--3---3--3--3---3--3--3---3--3--3---3------------|
C|-3--3---3--3--3---3--3--3---3--3--3---3------------|




d|---------------------------------------------------|
A|---------------------------------------------------|
F|---------------------------------------------------|
C|-5--5---5--5--5---5--5--5---5--5--5---5------------|
G|-5--5---5--5--5---5--5--5---5--5--5---5------------|
C|-5--5---5--5--5---5--5--5---5--5--5---5------------|

d|---------------------------------------------------|
A|---------------------------------------------------|
F|---------------------------------------------------|
C|-0--0---0--0--0---0--0--0---0--0--0---0------------|
G|-0--0---0--0--0---0--0--0---0--0--0---0------------|
C|-0--0---0--0--0---0--0--0---0--0--0---0------------|

d|---------------------------------------------------|
A|---------------------------------------------------|
F|---------------------------------------------------|
C|-0--0---0--0--0---0--0--0---0--0--0---0------------|
G|-0--0---0--0--0---0--0--0---0--0--0---0------------|
C|-0--0---0--0--0---0--0--0---0--0--0---0------------|

d|---------------------------------------------------|
A|---------------------------------------------------|
F|---------------------------------------------------|
C|-3--3---3--3--3---3--3--3---3--3--3---3------------|
G|-3--3---3--3--3---3--3--3---3--3--3---3------------|
C|-3--3---3--3--3---3--3--3---3--3--3---3------------|

d|---------------------------------------------------|
A|---------------------------------------------------|
F|---------------------------------------------------|
C|-5--5---5--5--5---5--5--5---5--5--5---5------------|
G|-5--5---5--5--5---5--5--5---5--5--5---5------------|
C|-5--5---5--5--5---5--5--5---5--5--5---5------------|

d|---------------------------------------------------|
A|---------------------------------------------------|
F|---------------------------------------------------|
C|-8--8---8--8--8---8--8--8---8--8--8---8------------|
G|-8--8---8--8--8---8--8--8---8--8--8---8------------|
C|-8--8---8--8--8---8--8--8---8--8--8---8------------|

d|---------------------------------------------------|
A|---------------------------------------------------|
F|---------------------------------------------------|
C|-10-10-10-10-10-10-10-10-11-11-11-11-11-11-11-11---|
G|-10-10-10-10-10-10-10-10-11-11-11-11-11-11-11-11---|
C|-10-10-10-10-10-10-10-10-11-11-11-11-11-11-11-11---|

Bridge: 
d|---------------------------------------------------|
A|---------------------------------------------------|
F|------------------------------------10~\-----------|
C|-0-0--0--0---------0-0---0--0--------8~\-----------|
G|-0-0--0--0---------0-0---0--0---0-0--8~\-----------|
C|-0-0--0--0---------0-0---0--0---0-0--8~\-----------|
PM - -  -  -         - -   -  -


d|---------------------------------------------------|
A|---------------------------------------------------|
F|------------------------------------10~\-----------|
C|-0-0--0--0---------0-0---0--0--------8~\-----------|
G|-0-0--0--0---------0-0---0--0---0-0--8~\-----------|
C|-0-0--0--0---------0-0---0--0---0-0--8~\-----------|
PM - -  -  -         - -   -  -

d|---------------------------------------------------|
A|---------------------------------------------------|
F|---------------------------------------------------|
C|-0--0--0--0--0--0--0--0-10-10-10-10-10-10-10-10----|
G|-0--0--0--0--0--0--0--0-10-10-10-10-10-10-10-10----|
C|-0--0--0--0--0--0--0--0-10-10-10-10-10-10-10-10----|

d|---------------------------------------------------|
A|---------------------------------------------------|
F|---------------------------------------------------|
C|-8--8--8--8--8--8--8--8--8\7--7--7--7--7--7--7-----|
G|-8--8--8--8--8--8--8--8--8\7--7--7--7--7--7--7-----|
C|-8--8--8--8--8--8--8--8--8\7--7--7--7--7--7--7-----|

d|---------------------------------------------------|
A|---------------------------------------------------|
F|---------------------------------------------------|
C|-0--0--0--0--0--0--0--0-10-10-10-10-10-10-10-10----|
G|-0--0--0--0--0--0--0--0-10-10-10-10-10-10-10-10----|
C|-0--0--0--0--0--0--0--0-10-10-10-10-10-10-10-10----|

d|---------------------------------------------------|
A|---------------------------------------------------|
F|-----------------------------------10~\------------|
C|-8--8--8--8--8--8--8--8--8\7--7--7-10~\------------|
G|-8--8--8--8--8--8--8--8--8\7--7--7--8~\------------|
C|-8--8--8--8--8--8--8--8--8\7--7--7-----------------|

d|---------------------------------------------------|
A|---------------------------------------------------|
F|---------------------------------------------------|
C|-0-0---0--0---0-10-10---10--10---10----------------|
G|-0-0---0--0---0-10-10---10--10---10----------------|
C|-0-0---0--0---0-10-10---10--10---10----------------|
PM              -                  --

d|---------------------------------------------------|
A|---------------------------------------------------|
F|---------------------------------------------------|
C|-8-8---8--8---8-7--7---7--7--7---7-----------------|
G|-8-8---8--8---8-8--8---8--8--8---8-----------------|
C|-8-8---8--8---8-7--7---7--7--7---7-----------------|
PM              -

d|---------------------------------------------------|
A|---------------------------------------------------|
F|---------------------------------------------------|
C|-8--8---8--8--8---8--8--8---8--8--8---8/-----------|
G|-8--8---8--8--8---8--8--8---8--8--8---8/-----------|
C|-8--8---8--8--8---8--8--8---8--8--8---8/-----------|

d|---------------------------------------------------|
A|---------------------------------------------------|
F|---------------------------------------------------|
C|-10-10-10-10-10-10-10-10-10.-----------------------|
G|-10-10-10-10-10-10-10-10-10.-----------------------|
C|-10-10-10-10-10-10-10-10-10.-----------------------|
PM -- -- -- -- -- -- --

Chorus: 
d|---------------------------------------------------|
A|---------------------------------------------------|
F|---------------------------------------------------|
C|-3--3---3--3--3---3--3--3---3--3--3---3------------|
G|-3--3---3--3--3---3--3--3---3--3--3---3------------|
C|-3--3---3--3--3---3--3--3---3--3--3---3------------|

d|---------------------------------------------------|
A|---------------------------------------------------|
F|---------------------------------------------------|
C|-5--5---5--5--5---5--5--5---5--5--5---5------------|
G|-5--5---5--5--5---5--5--5---5--5--5---5------------|
C|-5--5---5--5--5---5--5--5---5--5--5---5------------|

d|---------------------------------------------------|
A|---------------------------------------------------|
F|---------------------------------------------------|
C|-0--0---0--0--0---0--0--0---0--0--0---0------------|
G|-0--0---0--0--0---0--0--0---0--0--0---0------------|
C|-0--0---0--0--0---0--0--0---0--0--0---0------------|

d|---------------------------------------------------|
A|---------------------------------------------------|
F|---------------------------------------------------|
C|-0--0---0--0--0---0--0--0---0--0--0---0------------|
G|-0--0---0--0--0---0--0--0---0--0--0---0------------|
C|-0--0---0--0--0---0--0--0---0--0--0---0------------|

d|---------------------------------------------------|
A|---------------------------------------------------|
F|---------------------------------------------------|
C|-3--3---3--3--3---3--3--3---3--3--3---3------------|
G|-3--3---3--3--3---3--3--3---3--3--3---3------------|
C|-3--3---3--3--3---3--3--3---3--3--3---3------------|

d|---------------------------------------------------|
A|---------------------------------------------------|
F|---------------------------------------------------|
C|-5--5---5--5--5---5--5--5---5--5--5---5------------|
G|-5--5---5--5--5---5--5--5---5--5--5---5------------|
C|-5--5---5--5--5---5--5--5---5--5--5---5------------|

d|---------------------------------------------------|
A|---------------------------------------------------|
F|---------------------------------------------------|
C|-8--8---8--8--8---8--8--8---8--8--8---8------------|
G|-8--8---8--8--8---8--8--8---8--8--8---8------------|
C|-8--8---8--8--8---8--8--8---8--8--8---8------------|


d|---------------------------------------------------|
A|---------------------------------------------------|
F|---------------------------------------------------|
C|-10-10-10-10-10-10-10-10-11-11-11-11-11-11-11-11---|
G|-10-10-10-10-10-10-10-10-11-11-11-11-11-11-11-11---|
C|-10-10-10-10-10-10-10-10-11-11-11-11-11-11-11-11---|

Final Chorus:
d|---------------------------------------------------|
A|---------------------------------------------------|
F|---------------------------------------------------|
C|-3--3---3--3--3---3--3--3---3--3--3---3------------|
G|-3--3---3--3--3---3--3--3---3--3--3---3------------|
C|-3--3---3--3--3---3--3--3---3--3--3---3------------|

d|---------------------------------------------------|
A|---------------------------------------------------|
F|---------------------------------------------------|
C|-5--5---5--5--5---5--5--5---5--5--5---5------------|
G|-5--5---5--5--5---5--5--5---5--5--5---5------------|
C|-5--5---5--5--5---5--5--5---5--5--5---5------------|

d|---------------------------------------------------|
A|---------------------------------------------------|
F|---------------------------------------------------|
C|-0--0---0--0--0---0--0--0---0--0--0---0------------|
G|-0--0---0--0--0---0--0--0---0--0--0---0------------|
C|-0--0---0--0--0---0--0--0---0--0--0---0------------|

d|---------------------------------------------------|
A|---------------------------------------------------|
F|---------------------------------------------------|
C|-0--0---0--0--0---0--0--0---0--0--0---0------------|
G|-0--0---0--0--0---0--0--0---0--0--0---0------------|
C|-0--0---0--0--0---0--0--0---0--0--0---0------------|

d|---------------------------------------------------|
A|---------------------------------------------------|
F|---------------------------------------------------|
C|-3--3---3--3--3---3--3--3---3--3--3---3------------|
G|-3--3---3--3--3---3--3--3---3--3--3---3------------|
C|-3--3---3--3--3---3--3--3---3--3--3---3------------|

d|---------------------------------------------------|
A|---------------------------------------------------|
F|---------------------------------------------------|
C|-5--5---5--5--5---5--5--5---5--5--5---5------------|
G|-5--5---5--5--5---5--5--5---5--5--5---5------------|
C|-5--5---5--5--5---5--5--5---5--5--5---5------------|

d|---------------------------------------------------|
A|---------------------------------------------------|
F|---------------------------------------------------|
C|-8--8---8--8--8---8--8--8---8--8--8---8------------|
G|-8--8---8--8--8---8--8--8---8--8--8---8------------|
C|-8--8---8--8--8---8--8--8---8--8--8---8------------|



d|---------------------------------------------------|
A|---------------------------------------------------|
F|---------------------------------------------------|
C|-10-10-10-10-10-10-10-10-11-11-11-11-11-11-11-11-0-|
G|-10-10-10-10-10-10-10-10-11-11-11-11-11-11-11-11-0-|
C|-10-10-10-10-10-10-10-10-11-11-11-11-11-11-11-11-0-|


In Another Life
intro:
D|---------------------------------|
A|-7-7-7-7-7-7-7-7-7-7-7-7-7-7-7-7-|
F|---------------------------------|x2
C|---------------------------------|
G|---------------------------------|
C|---------------------------------|

VERSE 1
D|------------------------------------------|
A|------------------------------------------|
F|------------------------------------------|x4
C|-22222222-99999999-55555555-xx-xx-xxxxxxx-|
G|-22222222-99999999-55555555-xx-xx-xxxxxxx-|
C|-22222222-99999999-55555555-xx-xx-xxxxxxx-|

chorus:
D|------------------------------------------|
A|-77777777-10101010-9999-77777777----------|
F|--------------------------------9999-8888-|
C|------------------------------------------|
G|------------------------------------------|
C|------------------------------------------|

D|-------------------------------------------|
A|-7777777-10101010-9999-77777777----------7~|
F|--------------------------------9999-8888--|
C|-------------------------------------------|
G|-------------------------------------------|
C|-------------------------------------------|

VERSE 2
D|------------------------------------------|
A|------------------------------------------|
F|------------------------------------------|
C|-22222222-99999999-55555555-xx-xx-xxxxxxx-|x2
G|-22222222-99999999-55555555-xx-xx-xxxxxxx-|
C|-22222222-99999999-55555555-xx-xx-xxxxxxx-|

D|----------------------------------------|
A|----------------------------------------|
F|----------------------------------------|
C|-22222222-99999999-55555555-xx-xx-5\\\--|
G|-22222222-99999999-55555555-xx-xx-5\\\--|
C|-22222222-99999999-55555555-xx-xx-5\\\--|

chorus x2



bridge:
D|----------------------------------------------|
A|----------------------------------------------|
F|----------------------------------------------|
C|--2--2--222222--2--2--222222--222222--222222--|
G|--2--2--222222--2--2--222222--222222--222222--|
C|--2--2--222222--2--2--222222--222222--222222--|

D|------------------------------------16-16-16-16-16-18-18-18-18-18-|
A|-18-18-18-18-18-18------------------------------------------------|
F|------------------20-20-20-20-20-20-------------------------------|
C|------------------------------------------------------------------|
G|------------------------------------------------------------------|
C|------------------------------------------------------------------|

D|-------------------------------------16-16-16-16-16-16-18-18-20-20-21-21-|
A|-18-18-18-18-18-18-------------------------------------------------------|
F|-------------------20-20-20-20-20-20-------------------------------------|
C|-------------------------------------------------------------------------|
G|-------------------------------------------------------------------------|
C|-------------------------------------------------------------------------|

CHORUS X2

end on either
D|------|       D|------|
A|-7~~--|       A|------|
F|------|       F|------|
C|------|  OR   C|------| 
G|------|       G|------|
C|------|       C|-2~~--|


Adalia
INTRO:                    
d|--------------------|----------------------------|
A|--------------------|----------------------------|
F|-9\10-10-10-10-10-10|---10\12-12-12-10-10--------| x3
C|-9\10-10-10-10-10-10|---10\12-12-12-10-10--------|
G|-7\8--8--8--8--8--8-|---8-\10-10-10-8--8---------|
C|--------------------|----------------------------|

VERSE 1:                    x3
d|--------------------|----------------------------|
A|--------------------|----------------------------|
F|--9\101010-101010---|---9/101010-12-12-----------|  repeat all x3
C|--9\101010-101010---|---9/101010-12-12-----------|
G|--7\8-8-8--8-8-8----|---7/8-8-8--10-10-----------|
C|--------------------|----------------------------|

PIANO LINK:
d|--------------------------|
A|--------------------------|
F|--------------------------|
C|---------NO-GUITAR--------|
G|--------------------------|
C|--------------------------|


SCREAM BIT:
d|--------------------------|
A|--------------------------|
F|---101010----101010-------|
C|---101010----101010-------|
G|---8-8-8-----8-8-8--------|
C|--------------------------|

VERSE 2:                    x3
d|--------------------|----------------------------|
A|--------------------|----------------------------|
F|--9\101010-101010---|---7/101010-12-12-----------|  repeat all x2
C|--9\101010-101010---|---7/101010-12-12-----------|
G|--7\8-8-8--8-8-8----|---7/8-8-8--10-10-----------|
C|--------------------|----------------------------|

PIANO LINK:

BIT AFTER PIANO LINK:
d|-----------------------------------------------|
A|-----------------------------------------------|
F|---101010-----12-12-12-----9-9-9------101010---|
C|---101010-----12-12-12-----9-9-9------101010---|
G|---8-8-8------10-10-10-----7-7-7------8-8-8----|
C|-----------------------------------------------|

BRIDGE AND VERSE 3:
d|---------------------------------------|
A|---------------------------------------|
F|-----------9-9-9-9-----------9-9-9-9---| play this x9, the vocals (verse 3)
C|---3-3-3-/-10101010--5-5-5-/-10101010--| kick in after the 2nd time.
G|---3-3-3-/-8-8-8-8---5-5-5-/-8-8-8-8---|
C|---3-3-3-/-----------5-5-5-/-----------|

ENDING:
d|------|
A|------|
F|------|
C|--3~--|
G|--3~--|
C|--3~--|


House Of Cards
Intro/Verse (Tapping):
D|-------------------------------------|
A|-5-17-5-12--5-12-5-13-5-13-5-13-5-12-|
F|-------------------------------------|
C|-------------------------------------| x10
G|-------------------------------------|
C|-------------------------------------|

Chorus:
D|---------------------------------------------------------|
A|---------------------------------------------------------|
F|---------------------------------------------------------|
C|-10--10-10--10-10--7--7-7--7-7--2--2-2--2-2--2--2-2--2-2-|
G|-10--10-10--10-10--7--7-7--7-7--2--2-2--2-2--2--2-2--2-2-|
C|-10--10-10--10-10--7--7-7--7-7--2--2-2--2-2--2--2-2--2-2-|

D|---------------------------------------------------------|
A|---------------------------------------------------------|
F|---------------------------------------------------------|
C|-10--10-10--10-10--7--7-7--7-7--2--2-2--7-9--9--9-9--9-9-|
G|-10--10-10--10-10--7--7-7--7-7--2--2-2--7-9--9--9-9--9-9-|
C|-10--10-10--10-10--7--7-7--7-7--2--2-2--7-9--9--9-9--9-9-|

Intro/Verse (Tapping):
D|-------------------------------------|
A|-5-17-5-12--5-12-5-13-5-13-5-13-5-12-|
F|-------------------------------------|
C|-------------------------------------| x6
G|-------------------------------------|
C|-------------------------------------|

Chorus:
D|---------------------------------------------------------|
A|---------------------------------------------------------|
F|---------------------------------------------------------|
C|-10--10-10--10-10--7--7-7--7-7--2--2-2--2-2--2--2-2--2-2-|
G|-10--10-10--10-10--7--7-7--7-7--2--2-2--2-2--2--2-2--2-2-|
C|-10--10-10--10-10--7--7-7--7-7--2--2-2--2-2--2--2-2--2-2-|

D|---------------------------------------------------------|
A|---------------------------------------------------------|
F|---------------------------------------------------------|
C|-10--10-10--10-10--7--7-7--7-7--2--2-2--7-9--9--9-9--9-9-|
G|-10--10-10--10-10--7--7-7--7-7--2--2-2--7-9--9--9-9--9-9-|
C|-10--10-10--10-10--7--7-7--7-7--2--2-2--7-9--9--9-9--9-9-|

Repeat whole chorus.

Bridge:
D|-------------------------------------------------|
A|-------------------------------------------------|
F|-------------------------------------------------|
C|-10-10-10-10-10-10-10-10-12-12-12-12-12-12-12-12-|
G|-10-10-10-10-10-10-10-10-12-12-12-12-12-12-12-12-|
C|-10-10-10-10-10-10-10-10-12-12-12-12-12-12-12-12-|

D|-------------------------------------|
A|-------------------------------------|
F|-------------------------------------|
C|-7-7-7-7-7-7-7-7-7-7-7-7-7-7-7-5-7-5-|
G|-7-7-7-7-7-7-7-7-7-7-7-7-7-7-7-5-7-5-|
C|-7-7-7-7-7-7-7-7-7-7-7-7-7-7-7-5-7-5-|

D|-------------------------------------------------|
A|-------------------------------------------------|
F|-------------------------------------------------|
C|-10-10-10-10-10-10-10-10-12-12-12-12-12-12-12-12-|
G|-10-10-10-10-10-10-10-10-12-12-12-12-12-12-12-12-|
C|-10-10-10-10-10-10-10-10-12-12-12-12-12-12-12-12-|





D|-------------------------------------|
A|-------------------------------------|
F|-------------------------------------|
C|-7-7-7-7-7-7-7-7-7-7-7-7-7-7-7-5-7-5-|
G|-7-7-7-7-7-7-7-7-7-7-7-7-7-7-7-5-7-5-|
C|-7-7-7-7-7-7-7-7-7-7-7-7-7-7-7-5-7-5-|

D|-------------------------------------------------|
A|-------------------------------------------------|
F|-------------------------------------------------|
C|-10-10-10-10-10-10-10-10-12-12-12-12-12-12-12-12-|
G|-10-10-10-10-10-10-10-10-12-12-12-12-12-12-12-12-|
C|-10-10-10-10-10-10-10-10-12-12-12-12-12-12-12-12-|

D|-------------------------------------|
A|-------------------------------------|
F|-------------------------------------|
C|-7-7-7-7-7-7-7-7-7-7-7-7-7-7-7-5-7-5-|
G|-7-7-7-7-7-7-7-7-7-7-7-7-7-7-7-5-7-5-|
C|-7-7-7-7-7-7-7-7-7-7-7-7-7-7-7-5-7-5-|

D|-------------------------------------|
A|-------------------------------------|
F|-------------------------------------|
C|-5-5-5-5-5-5-5-5-5-5-5-5-5-5-5-5-5-5-|
G|-5-5-5-5-5-5-5-5-5-5-5-5-5-5-5-5-5-5-|
C|-5-5-5-5-5-5-5-5-5-5-5-5-5-5-5-5-5-5-|

D|----------------------------------------|
A|----------------------------------------|
F|----------------------------------------|
C|-4-4-4-4-4-4-4-4-4-4-4-4-4-4-4-4-4-4-2~-|
G|-4-4-4-4-4-4-4-4-4-4-4-4-4-4-4-4-4-4-2~-|
C|-4-4-4-4-4-4-4-4-4-4-4-4-4-4-4-4-4-4-2~-|

Intro/Verse (Tapping):

D|-------------------------------------|
A|-5-17-5-12--5-12-5-13-5-13-5-13-5-12-|
F|-------------------------------------|
C|-------------------------------------| x8
G|-------------------------------------|
C|-------------------------------------|

Chorus:
D|---------------------------------------------------------|
A|---------------------------------------------------------|
F|---------------------------------------------------------|
C|-10--10-10--10-10--7--7-7--7-7--2--2-2--2-2--2--2-2--2-2-|
G|-10--10-10--10-10--7--7-7--7-7--2--2-2--2-2--2--2-2--2-2-|
C|-10--10-10--10-10--7--7-7--7-7--2--2-2--2-2--2--2-2--2-2-|

D|---------------------------------------------------------|
A|---------------------------------------------------------|
F|---------------------------------------------------------|
C|-10--10-10--10-10--7--7-7--7-7--2--2-2--7-9--9--9-9--9-9-|
G|-10--10-10--10-10--7--7-7--7-7--2--2-2--7-9--9--9-9--9-9-|
C|-10--10-10--10-10--7--7-7--7-7--2--2-2--7-9--9--9-9--9-9-|

Repeat whole chorus 3 more times.

D|----|
A|----|
F|----|
C|-2~-| Let ring out.
G|-2~-|
C|-2~-|

Now Or Never
Intro
D|-------------------------------------------------------------------|\
A|-------------------------------------------------------------------| \
F|-------------------------------------------------------------------|  \
C|-------------------------------------------------------------------|   \
G|-0000000000000000-4444444444444444-7777777777777777----------------|    \
C|-0000000000000000-4444444444444444-7777777777777777----------------|     \   
 Pm..................................................                     x2

D|-------------------------------------------------------------------|     /    
A|-------------------------------------------------------------------|    /
F|-------------------------------------------------------------------|   /
C|------------------7--7--7---6--6-666-------------------------------|  /
G|-0000000000000000-7--7--7---7--7-777-------------------------------| /
C|-0000000000000000-777777777-6666-666-------------------------------|/
 Pm................. .. .. ..  .. 

Pre-chorus
D|---------------------------|
A|---------------------------|
F|---------------------------|
C|---------------------------|
G|---------------------------|
C|---------------------------|

Chorus
D|---------------------------|----------------------------------------------|
A|---------------------------|----------------------------------------------|
F|---------------------------|----------------------------------------------|
C|--777---999---0~-----------|-----2-2-2-2-2-2-xx-xx-2-2-2-2-2-2------------|
G|--777---999---0~-----------|-----2-2-2-2-2-2-xx-xx-2-2-2-2-2-2------------|
C|--777---999---0~--x3-------|-----2-2-2-2-2-2-xx-xx-2-2-2-2-2-2------------|


Verse
D|---------------------------|
A|---------------------------|
F|-----[No guitar]-----------|
C|---------------------------|
G|---------------------------|
C|---------------------------|

D|----------------------------------------------------|
A|----------------------------------------------------|
F|----------------------------------------------------|
C|-0000000000000000-4444444444444444-7777777777777777-|
G|-0000000000000000-4444444444444444-7777777777777777-|
C|-0000000000000000-4444444444444444-7777777777777777-|

D|----------------------------------------------------|
A|----------------------------------------------------|
F|----------------------------------------------------|
C|-0000000000000000-7777777777777777-9999999999999999-|
G|-0000000000000000-7777777777777777-9999999999999999-|
C|-0000000000000000-7777777777777777-9999999999999999-|

Pre-chorus
D|------------------------------|
A|------------------------------|
F|------------------------------|
C|------------------------------|
G|------------------------------|
C|------------------------------|

Chorus
D|------------------------------|-------------------------------------------|
A|------------------------------|-------------------------------------------|
F|------------------------------|-------------------------------------------|
C|--777---999---0~--------------|-----2-2-2-2-2-2-xx-xx-2-2-2-2-2-2---------|
G|--777---999---0~--------------|-----2-2-2-2-2-2-xx-xx-2-2-2-2-2-2---------|
C|--777---999---0~--x3----------|-----2-2-2-2-2-2-xx-xx-2-2-2-2-2-2---------|

D|------------------------------|-------------------------------------------|
A|------------------------------|-------------------------------------------|
F|------------------------------|-------------------------------------------|
C|-7------2-4------0------2-----|-7------2-4------0-----222222-xx-xx-222222-|
G|-7------2-4------0------2-----|-7------2-4------0-----222222-xx-xx-222222-|
C|-7-x16--2-4-x16--0-x16--2-x16-|-7-x16--2-4-x16--0-x16-222222-xx-xx-222222-|

D|------------------------------|-------------------------------------------|
A|------------------------------|-10-1010-----1010101010101010--------------|
F|------------------------------|--9--9-9------9-9-9-9-9-9-9-9--------------|
C|------------------------------|--9--9-9-x6---9-9-9-9-9-9-9-9--------------|
G|------------------------------|-------------------------------------------|
C|------------------------------|-------------------------------------------|

Outro
D|--------------------------------------------------------------------------|
A|--------------------------------------------------------------------------|
F|--------------------------------------------------------------------------|
C|-7------0------7------0------4------0------2------------------------------|
G|-7------0------7------0------4------0------2------------------------------|
C|-7-x16--0-x16--7-x16--0-x16--4-x16--0-x16--2-x32--------------------------|
X2

Pandora
Intro (synth): 

Verse:             The lies, the heat, the sex, this sweat...
|-----------------------------------------------------------------------|
|-8-8-8-8-8-8-8-8---3---3-3---5---2-2---2-2---2---2-2---2-2---2-2-------|
|-9-9-9-9-9-9-9-9---4---4-4---6---3-3---3-3---3---3-3---3-3---3-3-------|
|-9-9-9-9-9-9-9-9---5---5-5---7---4-4---4-4---4---4-4---4-4---4-4-------|
|---------------------------------4-4---4-4---4---4-4---4-4---4-4-(x4)--|
|-----------------------------------------------------------------------|
                        ...Pandora.


Chorus:          I don't know how you charmed your name into my heart...
|-----------------------------------------------------------------------|
|-----------------------------------------------------------------------|
|-----------------------------------------------------------------------|
|-7-7-7-7---9-9-9-9---11-11-11-11---6-6-6-6--6-5--6---------------------|
|-7-7-7-7---9-9-9-9---11-11-11-11---6-6-6-6--6-5--6---------------------|
|-7-7-7-7---9-9-9-9---11-11-11-11---6-6-6-6--6-5--6--(x4)---------------|

Verse:      The girl I love sits at home, and I know that she's lonely...
|-----------------------------------------------------------------------|
|-8-8-8-8-8-8-8-8---3---3-3---5---2-2---2-2---2---2-2---2-2---2-2-------|
|-9-9-9-9-9-9-9-9---4---4-4---6---3-3---3-3---3---3-3---3-3---3-3-------|
|-9-9-9-9-9-9-9-9---5---5-5---7---4-4---4-4---4---4-4---4-4---4-4-------|
|---------------------------------4-4---4-4---4---4-4---4-4---4-4-(x5)--|
|-----------------------------------------------------------------------|
                       ...Pandora.

Chorus:         I don't know how you charmed your way into my heart...
|-----------------------------------------------------------------------|
|-----------------------------------------------------------------------|
|-----------------------------------------------------------------------|
|-7-7-7-7---9-9-9-9---11-11-11-11---6-6-6-6--6-5--6---------------------|
|-7-7-7-7---9-9-9-9---11-11-11-11---6-6-6-6--6-5--6---------------------|
|-7-7-7-7---9-9-9-9---11-11-11-11---6-6-6-6--6-5--6--(x4)---------------|
                       ....Pandora.

Bridge (synth):

Guitar part to bridge:

|-0-0-0-0-0-0-0-0-0h7-7-7-7-7-7-6-7-6-6-6-6-6-6-6-6-2-2-2-2-3-3-3-3-(x2)|
|-----------------------------------------------------------------------|
|-----------------------------------------------------------------------|
|-----------------------------------------------------------------------|
|-----------------------------------------------------------------------|
|-----------------------------------------------------------------------|
(add a pick scrape at the end of this little bridge thing if you so desire; the 
studio does).       ....Pandora

Chorus:        I don't know how you charmed your way into my heart...

|-----------------------------------------------------------------------|
|-----------------------------------------------------------------------|
|-----------------------------------------------------------------------|
|-7-7-7-7---9-9-9-9---11-11-11-11---6-6-6-6--6-5--6---------------------|
|-7-7-7-7---9-9-9-9---11-11-11-11---6-6-6-6--6-5--6---------------------|
|-7-7-7-7---9-9-9-9---11-11-11-11---6-6-6-6--6-5--6--(x5)---------------|
                      ....Pandora.

Stars (acoustic baby XD)
Intro: Clean. Let all the notes ring as much as possible.
e|--------------------------------------------------------------|
B|--------------------------------------------------------------|
G|-----0-----0--------0-----0--------0-----0--------0-----------|
D|---5-----5--------5-----5--------5-----5--------5-----5-------|
A|--------------------------------------------------------------|
D|-5-----5------0-7-----7------0-2-----2------2-4-----4---2-2-4-|


e|--------------------------------------------------------------|
B|--------------------------------------------------------------|
G|-----0-----0--------0-----0--------0-----0--------0-----------|
D|---5-----5--------5-----5--------5-----5--------5-----5-------|
A|--------------------------------------------------------------|
D|-5-----5------0-7-----7------0-2-----2------2-4-----4---2-2-4-|

Verse 1: 
e|--------------------------------------------------------------|
B|--------------------------------------------------------------|
G|-----0-----0--------0-----0--------0-----0--------0-----------|
D|---5-----5--------5-----5--------5-----5--------5-----5-------|
A|--------------------------------------------------------------|
D|-5-----5------0-7-----7------0-2-----2------2-4-----4---2-2-4-|

e|--------------------------------------------------------------|
B|--------------------------------------------------------------|
G|-----0-----0--------0-----0--------0-----0--------0-----------|
D|---5-----5--------5-----5--------5-----5--------5-----5-------|
A|--------------------------------------------------------------|
D|-5-----5------0-7-----7------0-2-----2------2-4-----4---2-2-4-|

e|----0-----0---------0-----0---------0-----0---------0----------|
B|--0-----0-----0---0-----0-----0---0-----0-----0---0-----0------|
G|4-----4-----4---5-----5-----5---4-----4-----4---3-----3---3-3-1|
D|---------------------------------------------------------------|
A|---------------------------------------------------------------|
D|---------------------------------------------------------------|

e|----0-----0---------0-----0---------0-----0---------0----------|
B|--0-----0-----0---0-----0-----0---0-----0-----0---0-----0------|
G|4-----4-----4---5-----5-----5---4-----4-----4---3-----3---3-3-1|
D|---------------------------------------------------------------|
A|---------------------------------------------------------------|
D|---------------------------------------------------------------|

e|----0-----0---------0-----0---------0-----0---------0----------|
B|--0-----0-----0---0-----0-----0---0-----0-----0---0-----0------|
G|4-----4-----4---5-----5-----5---4-----4-----4---3-----3---3-3-1|
D|---------------------------------------------------------------|
A|---------------------------------------------------------------|
D|---------------------------------------------------------------|

e|----0-----0---------0-----0---------0-----0---------0----------|
B|--0-----0-----0---0-----0-----0---0-----0-----0---0-----0------|
G|4-----4-----4---5-----5-----5---4-----4-----4---3-----3---3-3-1|
D|---------------------------------------------------------------|
A|---------------------------------------------------------------|
D|---------------------------------------------------------------|

Pre-Chorus: 
e|3---3---3---3---3---3---3---3---5---5---5---5---5---5---5---5---|
B|--5---5---5---5---5---5---5---5---7---7---7---7---7---7---7---7-|
G|----------------------------------------------------------------|
D|----------------------------------------------------------------|
A|----------------------------------------------------------------|
D|----------------------------------------------------------------|


e|7---7---7---7---7---7---7---7---6---6---6---6---6---6---6---6---|
B|--8---8---8---8---8---8---8---8---8---8---7---7---8---8---7-7---|
G|----------------------------------------------------------------|
D|----------------------------------------------------------------|
A|----------------------------------------------------------------|
D|----------------------------------------------------------------|

Chorus: Distortion. 
e|-------------------------------------|
B|-13-13-13--13--13-13--13--13-13-13\--|
G|-12-12-12--12--12-12--12--12-12-12\--|
D|-10-10-10--10--10-10--10--10-10-10\--|
A|-10-10-10--10--10-10--10--10-10-10\--|
D|-10-10-10--10--10-10--10--10-10-10\--|

e|--------------------------------------------------------------|
B|-3-3-3--3--3-3--3--3-3-3--5-5-5--5--5-5--5--5-5-5-------------|
G|-2-2-2--2--2-2--2--2-2-2--4-4-4--4--4-4--4--4-4-4-------------|
D|-0-0-0--0--0-0--0--0-0-0--2-2-2--2--2-2--2--2-2-2-------------|
A|-0-0-0--0--0-0--0--0-0-0--2-2-2--2--2-2--2--2-2-2-------------|
D|-0-0-0--0--0-0--0--0-0-0--2-2-2--2--2-2--2--2-2-2-------------|

e|--------------------------------------------------------------|
B|-7-7-7--7--7-7--7--7-7-7--------------------------------------|
G|-6-6-6--6--6-6--6--6-6-6--------------------------------------|
D|-4-4-4--4--4-4--4--4-4-4--------------------------------------|
A|-4-4-4--4--4-4--4--4-4-4--------------------------------------|
D|-4-4-4--4--4-4--4--4-4-4--------------------------------------|

e|-------------------------------------|
B|-13-13-13--13--13-13--13--13-13-13\--|
G|-12-12-12--12--12-12--12--12-12-12\--|
D|-10-10-10--10--10-10--10--10-10-10\--|
A|-10-10-10--10--10-10--10--10-10-10\--|
D|-10-10-10--10--10-10--10--10-10-10\--|

e|--------------------------------------------------------------|
B|-3-3-3--3--3-3--3--3-3-3--5-5-5--5--5-5--5--5-5-5-------------|
G|-2-2-2--2--2-2--2--2-2-2--4-4-4--4--4-4--4--4-4-4-------------|
D|-0-0-0--0--0-0--0--0-0-0--2-2-2--2--2-2--2--2-2-2-------------|
A|-0-0-0--0--0-0--0--0-0-0--2-2-2--2--2-2--2--2-2-2-------------|
D|-0-0-0--0--0-0--0--0-0-0--2-2-2--2--2-2--2--2-2-2-------------|

e|---------------------------|
B|---------------------------|
G|---------------------------|
D|-2-2-2--2--2-2--2--2-2-2---|
A|-2-2-2--2--2-2--2--2-2-2---|
D|-2-2-2--2--2-2--2--2-2-2---|

Verse 2: 
e|----0-----0---------0-----0---------0-----0---------0----------|
B|--0-----0-----0---0-----0-----0---0-----0-----0---0-----0------|
G|4-----4-----4---5-----5-----5---4-----4-----4---3-----3---3-3-1|
D|---------------------------------------------------------------|
A|---------------------------------------------------------------|
D|---------------------------------------------------------------|


e|----0-----0---------0-----0---------0-----0---------0----------|
B|--0-----0-----0---0-----0-----0---0-----0-----0---0-----0------|
G|4-----4-----4---5-----5-----5---4-----4-----4---3-----3---3-3-1|
D|---------------------------------------------------------------|
A|---------------------------------------------------------------|
D|---------------------------------------------------------------|

Heavy compression and distortion here.
e|----------------------------------------------------------------|
B|----------------------------------------------------------------|
G|----------------------------------------------------------------|
D|-5-5-5-5-5-5-5-5-7-7-7-7-7-7-7-7-2-2-2-2-2-2-2-2-4-4-4-4-4-2-2-4|
A|-x-x-x-x-x-x-x-x-x-x-x-x-x-x-x-x-x-x-x-x-x-x-x-x-x-x-x-x-x-2-2-4|
D|-5-5-5-5-5-5-5-5-7-7-7-7-7-7-7-7-2-2-2-2-2-2-2-2-4-4-4-4-4-2-2-4|

e|----------------------------------------------------------------|
B|----------------------------------------------------------------|
G|----------------------------------------------------------------|
D|-5-5-5-5-5-5-5-5-7-7-7-7-7-7-7-7-2-2-2-2-2-2-2-2-4-4-4-4-4-2-2-4|
A|-x-x-x-x-x-x-x-x-x-x-x-x-x-x-x-x-x-x-x-2-2-2-2-2-4-4-4-4-4-2-2-4|
D|-5-5-5-5-5-5-5-5-7-7-7-7-7-7-7-7-2-2-2-2-2-2-2-2-4-4-4-4-4-2-2-4|

Chorus: Distortion. 
e|-------------------------------------|
B|-13-13-13--13--13-13--13--13-13-13\--|
G|-12-12-12--12--12-12--12--12-12-12\--|
D|-10-10-10--10--10-10--10--10-10-10\--|
A|-10-10-10--10--10-10--10--10-10-10\--|
D|-10-10-10--10--10-10--10--10-10-10\--|

e|--------------------------------------------------------------|
B|-3-3-3--3--3-3--3--3-3-3--5-5-5--5--5-5--5--5-5-5-------------|
G|-2-2-2--2--2-2--2--2-2-2--4-4-4--4--4-4--4--4-4-4-------------|
D|-0-0-0--0--0-0--0--0-0-0--2-2-2--2--2-2--2--2-2-2-------------|
A|-0-0-0--0--0-0--0--0-0-0--2-2-2--2--2-2--2--2-2-2-------------|
D|-0-0-0--0--0-0--0--0-0-0--2-2-2--2--2-2--2--2-2-2-------------|

e|--------------------------------------------------------------|
B|-7-7-7--7--7-7--7--7-7-7--------------------------------------|
G|-6-6-6--6--6-6--6--6-6-6--------------------------------------|
D|-4-4-4--4--4-4--4--4-4-4--------------------------------------|
A|-4-4-4--4--4-4--4--4-4-4--------------------------------------|
D|-4-4-4--4--4-4--4--4-4-4--------------------------------------|

e|-------------------------------------|
B|-13-13-13--13--13-13--13--13-13-13\--|
G|-12-12-12--12--12-12--12--12-12-12\--|
D|-10-10-10--10--10-10--10--10-10-10\--|
A|-10-10-10--10--10-10--10--10-10-10\--|
D|-10-10-10--10--10-10--10--10-10-10\--|

e|--------------------------------------------------------------|
B|-3-3-3--3--3-3--3--3-3-3--5-5-5--5--5-5--5--5-5-5-------------|
G|-2-2-2--2--2-2--2--2-2-2--4-4-4--4--4-4--4--4-4-4-------------|
D|-0-0-0--0--0-0--0--0-0-0--2-2-2--2--2-2--2--2-2-2-------------|
A|-0-0-0--0--0-0--0--0-0-0--2-2-2--2--2-2--2--2-2-2-------------|
D|-0-0-0--0--0-0--0--0-0-0--2-2-2--2--2-2--2--2-2-2-------------|



e|---------------------------|
B|---------------------------|
G|---------------------------|
D|-2-2-2--2--2-2--2--2-2-2---|
A|-2-2-2--2--2-2--2--2-2-2---|
D|-2-2-2--2--2-2--2--2-2-2---|

Break: Clean again
e|-----0-----0-----0-----0-----0---|
B|---0-----0-----0-----0-----0-----|
G|-4-----4-----4-----4-----4-----4-|
D|---------------------------------|
A|---------------------------------|
D|---------------------------------|

e|-----0-----0-----0-----0-----0---|
B|---0-----0-----0-----0-----0-----|
G|\3-----3-----3-----3-----3-----3-|
D|---------------------------------|
A|---------------------------------|
D|---------------------------------|

e|-----0-----0-----0-----0-----0---|
B|---0-----0-----0-----0-----0-----|
G|/4-----4-----4-----4-----4-----4-|
D|---------------------------------|
A|---------------------------------|
D|---------------------------------|

e|-----0-----0-----0-----0-----0---|
B|---0-----0-----0-----0-----0-----|
G|\3-----3-----3-----3-----3-----3-|
D|---------------------------------|
A|---------------------------------|
D|---------------------------------|

Bridge: Still clean..
e|-----0-----0-----0-----0-----0-------0-----0-----------0-----0-----|
B|---0-----0-----0-----0-----0-------0-----0-----0-----0-----0-------|
G|-4-----4-----4-----4-----4-----4-3-----3-----3----/7-----7-----7---|
D|-------------------------------------------------------------------|
A|-------------------------------------------------------------------|
D|-------------------------------------------------------------------|

e|-----0-----0-----0-----0-----0-------0-----0-----------0-----0-----|
B|---0-----0-----0-----0-----0-------0-----0-----0-----0-----0-------|
G|-4-----4-----4-----4-----4-----4-3-----3-----3----/7-----7-----7---|
D|-------------------------------------------------------------------|
A|-------------------------------------------------------------------|
D|-------------------------------------------------------------------|

Some distortion sounds good.
e|-----------------------------------------------------------------|
B|-----------------------------------------------------------------|
G|-----------------------------------------------------------------|
D|-2-2-2-2-2-2-2-2-2-2-2-2-2-2-2-2-1-1-1-1-1-1-1-/-5-5-5-5-5-5-5-5-|
A|-x-x-x-x-x-x-x-x-x-x-x-x-x-x-x-x-x-x-x-x-x-x-x-/-5-5-5-5-5-5-5-5-|
D|-2-2-2-2-2-2-2-2-2-2-2-2-2-2-2-2-1-1-1-1-1-1-1-/-5-5-5-5-5-5-5-5-|

e|-----------------------------------------------------------------|
B|-----------------------------------------------------------------|
G|-----------------------------------------------------------------|
D|-2-2-2-2-2-2-2-2-2-2-2-2-2-2-2-2-1-1-1-1-1-1-1-/-5-5-5-5-5-5-5-5-|
A|-x-x-x-x-x-x-x-x-x-x-x-x-x-x-x-x-x-x-x-x-x-x-x-/-5-5-5-5-5-5-5-5-|
D|-2-2-2-2-2-2-2-2-2-2-2-2-2-2-2-2-1-1-1-1-1-1-1-/-5-5-5-5-5-5-5-5-|

e|-----------------------------------------------------------------|
B|-----------------------------------------------------------------|
G|-----------------------------------------------------------------|
D|-7-7-7-7-7-7-7-7-7-7-7-7-7-7-7-7-9-9-9-9-9-9-9-9-9-9-9-9-9-9-9-9-|
A|-7-7-7-7-7-7-7-7-7-7-7-7-7-7-7-7-9-9-9-9-9-9-9-9-9-9-9-9-9-9-9-9-|
D|-7-7-7-7-7-7-7-7-7-7-7-7-7-7-7-7-9-9-9-9-9-9-9-9-9-9-9-9-9-9-9-9-|

e|-----------------------------------------------------------------|
B|-----------------------------------------------------------------|
G|-----------------------------------------------------------------|
D|-7-7-7-7-7-7-7-7-7-7-7-7-7-7-7-7-9-9-9-9-9-9-9-9-9-9-9-9-9-9-9\\\|
A|-7-7-7-7-7-7-7-7-7-7-7-7-7-7-7-7-9-9-9-9-9-9-9-9-9-9-9-9-9-9-9\\\|
D|-7-7-7-7-7-7-7-7-7-7-7-7-7-7-7-7-9-9-9-9-9-9-9-9-9-9-9-9-9-9-9\\\|

Chorus: 
e|-------------------------------------|
B|/13-13-13--13--13-13--13--13-13-13\--|
G|/12-12-12--12--12-12--12--12-12-12\--|
D|/10-10-10--10--10-10--10--10-10-10\--|
A|/10-10-10--10--10-10--10--10-10-10\--|
D|/10-10-10--10--10-10--10--10-10-10\--|

e|--------------------------------------------------------------|
B|-3-3-3--3--3-3--3--3-3-3--5-5-5--5--5-5--5--5-5-5-------------|
G|-2-2-2--2--2-2--2--2-2-2--4-4-4--4--4-4--4--4-4-4-------------|
D|-0-0-0--0--0-0--0--0-0-0--2-2-2--2--2-2--2--2-2-2-------------|
A|-0-0-0--0--0-0--0--0-0-0--2-2-2--2--2-2--2--2-2-2-------------|
D|-0-0-0--0--0-0--0--0-0-0--2-2-2--2--2-2--2--2-2-2-------------|

e|--------------------------------------------------------------|
B|-7-7-7--7--7-7--7--7-7-7--------------------------------------|
G|-6-6-6--6--6-6--6--6-6-6--------------------------------------|
D|-4-4-4--4--4-4--4--4-4-4--------------------------------------|
A|-4-4-4--4--4-4--4--4-4-4--------------------------------------|
D|-4-4-4--4--4-4--4--4-4-4--------------------------------------|

e|-------------------------------------|
B|/13-13-13--13--13-13--13--13-13-13\--|
G|/12-12-12--12--12-12--12--12-12-12\--|
D|/10-10-10--10--10-10--10--10-10-10\--|
A|/10-10-10--10--10-10--10--10-10-10\--|
D|/10-10-10--10--10-10--10--10-10-10\--|

e|--------------------------------------------------------------|
B|-3-3-3--3--3-3--3--3-3-3--5-5-5--5--5-5--5--5-5-5-------------|
G|-2-2-2--2--2-2--2--2-2-2--4-4-4--4--4-4--4--4-4-4-------------|
D|-0-0-0--0--0-0--0--0-0-0--2-2-2--2--2-2--2--2-2-2-------------|
A|-0-0-0--0--0-0--0--0-0-0--2-2-2--2--2-2--2--2-2-2-------------|
D|-0-0-0--0--0-0--0--0-0-0--2-2-2--2--2-2--2--2-2-2-------------|


e|---------------------------|
B|---------------------------|
G|---------------------------|
D|-2-2-2--2--2-2--2--2-2-2---|
A|-2-2-2--2--2-2--2--2-2-2---|
D|-2-2-2--2--2-2--2--2-2-2---|

Outro: Palm Mute where the x's are. Heavy distortion.
e|-----------------------------------------|
B|-----------------------------------------|
G|-----------------------------------------|
D|-2-x-x-2-x-x-2-2-x-x-2-x-x-2-2-x-x-2-x-x-|
A|-2-x-x-2-x-x-2-2-x-x-2-x-x-2-2-x-x-2-x-x-|
D|-2-x-x-2-x-x-2-2-x-x-2-x-x-2-2-x-x-2-x-x-|

e|-----------------------------------------|
B|-----------------------------------------|
G|-----------------------------------------|
D|-2-x-x-2-x-x-2-2-x-x-2-x-x-2-2-x-x-2-x-x-|
A|-2-x-x-2-x-x-2-2-x-x-2-x-x-2-2-x-x-2-x-x-|
D|-2-x-x-2-x-x-2-2-x-x-2-x-x-2-2-x-x-2-x-x-|

e|-----------------------------------------|
B|-----------------------------------------|
G|-----------------------------------------|
D|-2-x-x-2-x-x-2-2-x-x-2-x-x-2-2-x-x-2-x-x-|
A|-2-x-x-2-x-x-2-2-x-x-2-x-x-2-2-x-x-2-x-x-|
D|-2-x-x-2-x-x-2-2-x-x-2-x-x-2-2-x-x-2-x-x-|

e|-----------------------------------------|
B|-----------------------------------------|
G|-----------------------------------------|
D|-2-x-x-2-x-x-2-2-x-x-2-x-x-2-2-x-x-2-x-x-|
A|-2-x-x-2-x-x-2-2-x-x-2-x-x-2-2-x-x-2-x-x-|
D|-2-x-x-2-x-x-2-2-x-x-2-x-x-2-2-x-x-2-x-x-|

e|-----------------------------|
B|-----------------------------|
G|-----------------------------|
D|-2-----2-----2-2-----2-----2-|
A|-2-----2-----2-2-----2-----2-|
D|-2-----2-----2-2-----2-----2-|

















River People
Tuning: Standard EADGBe

Chords used:
F#m - 244222
C# -  x46664
A -   x02220
D -   xx0232

Intro: F#m--C#-- x2

Verse 1:
               F#m(all the way)
i'll take your crystal ball
and make this crystal clear
that i won't stand back
and i won't drown right here
i'll never wait
i'll make a million mistakes
       (break)
but to be content is to be a disgrace

Refrain:
F#m(all the way)
restless faceless
you've lost your mind
faithless tortured
you've lost your mind

Chorus 1:
     F#m
they crawl in your head
they dig in your bones if
    C#
you let them they wont let go
     F#m
they have no hope
they have no soul if you
C#
let them they'll take yours

Verse 2:
             F#m(all the way)
you think it feels better 
on the other side
cause their grass is green 
and your grass is diseased
every day drowns in lethargy but to
be content is to burn your wings

(Repeat Refrain and chorus 1)








Bridge:
F#m
  when you die you
A
want the world to
  D
remember you for
C#
who you really are
F#m
  and when you die
    A
you want to
         D
love yourself cause
          C#       F#m--
you'll be all alone

(Repeat Chorus 1)

Chorus 2:
     F#m
they crawl in your head
don't fear the unknown
             C#
cause you'll let the
unkown take control
   F#m
so let yourself go
and let yourself
               C#
grow don't you let
them dig you a hole

Outro:
F#m
restless faceless
C#
you've lost your mind
F#m
faithless tortured
C#
you've lost your mind

F#m--C#--F#m--C#

One Last Kiss
Intro:
D|-----------------------------|
A|-------------6--6-6--6-6-6-6-|
F|-------------5--5-5--5-5-5-5-|
C|-3-3-3-3-3-3-3--3-3--3-3-3-3-|
G|-3-3-3-3-3-3-3--3-3--3-3-3-3-|
C|-3-3-3-3-3-3-----------------|
   . . . . . .




D|-----------------------------|
A|-------------6--6-6--8-8-8-8-|
F|-------------5--5-5--7-7-7-7-|
C|-3-3-3-3-3-3-3--3-3--5-5-5-5-|
G|-3-3-3-3-3-3-3--3-3--5-5-5-5-|
C|-3-3-3-3-3-3-----------------|
   .   . . . .

D|-----------------------------|
A|-------------6--6-6--6-6-6-6-|
F|-------------5--5-5--5-5-5-5-|
C|-0-0--0-0--0-3--3-3--3-3-3-3-|
G|-0-0--0-0--0-3--3-3--3-3-3-3-|
C|-0-0--0-0--0-----------------|
   .    .    .

D|-----------------------|
A|-------------6--6-6/9\-|
F|-------------5--5-5/8\-|
C|-0-0--0-0--0-3--3-3----|
G|-0-0--0-0--0-3--3-3----|
C|-0-0--0-0--0-----------|

D|-----------------------------|
A|-------------6--6-6--6-6-----|
F|-------------5--5-5--5-5-5-5-|
C|-3-3--3-3--3-3--3-3--3-3-3-3-|
G|-3-3--3-3--3-3--3-3--3-3-3-3-|
C|-3-3--3-3--3-----------------|
   .    .    .

D|-----------------------------|
A|-------------6--6-6--6-6-----|
F|-------------5--5-5--5-5-5-5-|
C|-0-0--0-0--0-3--3-3--3-3-3-3-|
G|-0-0--0-0--0-3--3-3--3-3-3-3-|
C|-0-0--0-0--0-----------------|
   .    .    .

D|-------------------------|
A|-6-6-6-6-6--6-6-6--6-6-6-|
F|-5-5-5-5-5--5-5-5--5-5-5-|
C|-3-3-3-3-3--3-3-3--3-3-3-|
G|-3-3-3-3-3--3-3-3--3-3-3-|
C|-------------------------|

Verse (Piano, transcribed for guitar):
D|----20----18----17----18----20-------------------|
A|-18----18----18----18----18----18-17-18-17-18-17-|
F|-------------------------------------------------|
C|-------------------------------------------------| x4
G|-------------------------------------------------|
C|-------------------------------------------------|







Verse:

D|----------|
A|----------|
F|----------|
C|-3-3--3-3-|
G|-3-3--3-3-|
C|-3-3--3-3-|
   . .  . .

D|--------------|
A|--------------|
F|--------------|
C|-3-3--3-3---5-|
G|-3-3--3-3---5-|
C|-3-3--3-3---5-|
   . .  . .   .

D|----------|
A|----------|
F|----------|
C|-0-0--0-0-|
G|-0-0--0-0-|
C|-0-0--0-0-|
   . .  . .

D|--------------|
A|--------------|
F|--------------|
C|-0-0--0-0---5-|
G|-0-0--0-0---5-|
C|-0-0--0-0---5-|
   . .  . .   .

D|----------|
A|----------|
F|----------|
C|-3-3--3-3-|
G|-3-3--3-3-|
C|-3-3--3-3-|
   . .  . .

D|--------------|
A|--------------|
F|--------------|
C|-3-3--3-3---5-|
G|-3-3--3-3---5-|
C|-3-3--3-3---5-|
   . .  . .   .

D|----------|
A|----------|
F|----------|
C|-0-0--0-0-|
G|-0-0--0-0-|
C|-0-0--0-0-|
   . .  . .

D|----------------|
A|----------------|
F|----------------|
C|-0-0-0-0-0--0-0-|
G|-0-0-0-0-0--0-0-|
C|-0-0-0-0-0--0-0-|

Chorus:
D|---------------------------------------------------------------------------|
A|---------------------------------------------------------------------------|
F|---------------------------------------------------------------------------|
C|-8-8-8-8-8-8-8-10-10-10-10-10-10-10-12-12-12-12-12-12-12-12-12-12-12-12-12-|
G|-8-8-8-8-8-8-8-10-10-10-10-10-10-10-12-12-12-12-12-12-12-12-12-12-12-12-12-|
C|-8-8-8-8-8-8-8-10-10-10-10-10-10-10-12-12-12-12-12-12-12-12-12-12-12-12-12-|

D|----------------------------------------------------------------------|
A|----------------------------------------------------------------------|
F|----------------------------------------------------------------------|
C|-8-8-8-8---8-8-8-10-10-10-10---10-10-10-0-0-0-0---0-0-0-0-0-0-0---0-0-|
G|-8-8-8-8---8-8-8-10-10-10-10---10-10-10-0-0-0-0---0-0-0-0-0-0-0---0-0-|
C|-8-8-8-8---8-8-8-10-10-10-10---10-10-10-0-0-0-0---0-0-0-0-0-0-0---0-0-|

Verse (Piano, transcribed for guitar):
D|----20----18----17----18----20-------------------|
A|-18----18----18----18----18----18-17-18-17-18-17-|
F|-------------------------------------------------|
C|-------------------------------------------------| x4
G|-------------------------------------------------|
C|-------------------------------------------------|

Verse:
D|----------|
A|----------|
F|----------|
C|-3-3--3-3-|
G|-3-3--3-3-|
C|-3-3--3-3-|
   . .  . .

D|--------------|
A|--------------|
F|--------------|
C|-3-3--3-3---5-|
G|-3-3--3-3---5-|
C|-3-3--3-3---5-|
   . .  . .   .

D|----------|
A|----------|
F|----------|
C|-0-0--0-0-|
G|-0-0--0-0-|
C|-0-0--0-0-|
   . .  . .





D|--------------|
A|--------------|
F|--------------|
C|-0-0--0-0---5-|
G|-0-0--0-0---5-|
C|-0-0--0-0---5-|
   . .  . .   .

D|----------|
A|----------|
F|----------|
C|-3-3--3-3-|
G|-3-3--3-3-|
C|-3-3--3-3-|
   . .  . .

D|--------------|
A|--------------|
F|--------------|
C|-3-3--3-3---5-|
G|-3-3--3-3---5-|
C|-3-3--3-3---5-|
   . .  . .   .

D|----------|
A|----------|
F|----------|
C|-0-0--0-0-|
G|-0-0--0-0-|
C|-0-0--0-0-|
   . .  . .

D|----------------|
A|----------------|
F|----------------|
C|-0-0-0-0-0--0-0-|
G|-0-0-0-0-0--0-0-|
C|-0-0-0-0-0--0-0-|

Chorus:
D|---------------------------------------------------------------------------|
A|---------------------------------------------------------------------------|
F|---------------------------------------------------------------------------|
C|-8-8-8-8-8-8-8-10-10-10-10-10-10-10-12-12-12-12-12-12-12-12-12-12-12-12-12-|
G|-8-8-8-8-8-8-8-10-10-10-10-10-10-10-12-12-12-12-12-12-12-12-12-12-12-12-12-|
C|-8-8-8-8-8-8-8-10-10-10-10-10-10-10-12-12-12-12-12-12-12-12-12-12-12-12-12-|

D|----------------------------------------------------------------------|
A|----------------------------------------------------------------------|
F|----------------------------------------------------------------------|
C|-8-8-8-8---8-8-8-10-10-10-10---10-10-10-0-0-0-0---0-0-0-0-0-0-0---0-0-|
G|-8-8-8-8---8-8-8-10-10-10-10---10-10-10-0-0-0-0---0-0-0-0-0-0-0---0-0-|
C|-8-8-8-8---8-8-8-10-10-10-10---10-10-10-0-0-0-0---0-0-0-0-0-0-0---0-0-|

Repeat Chorus once.




Breakdown:
D|-------------------------------------------------------------|
A|-6-6-6-6-----6-6-----6-6-6-6-----6-6-6-6-----6-6-----5-5-5-5-|
F|-5-5-5-5-----5-5-----5-5-5-5-----5-5-5-5-----5-5-----5-5-5-5-|
C|-------------------------------------------------------------|
G|---------6-6-----6-6---------------------6-6-----6-6---------|
C|-------------------------------------------------------------|
           . .     . .                     . .     . .

D|-------------------------------------------------------------|
A|-6-6-6-6-----6-6-----6-6-6-6-----6-6-6-6-----6-6-----5-5-5-5-|
F|-5-5-5-5-----5-5-----5-5-5-5-----5-5-5-5-----5-5-----5-5-5-5-|
C|-3-3-3-3-0-0-3-3-0-0-3-3-3-3-----3-3-3-3-0-0-3-3-0-0-3-3-3-3-|
G|---------0-0-----0-0---------------------0-0-----0-0---------|
C|---------0-0-----0-0---------------------0-0-----0-0---------|
           . .     . .                     . .     . .

D|----------------------------------------------------------|
A|-6-6-6-6-----6-6-----6-6-6-6-----6-6-6-6-----6-6----------|
F|-5-5-5-5-----5-5-----5-5-5-5-----5-5-5-5-----5-5----------|
C|-3-3-3-3-0-0-3-3-0-0-3-3-3-3-----3-3-3-3-0-0-3-3-0-0-/10\-|
G|---------0-0-----0-0---------------------0-0-----0-0-/10\-|
C|---------0-0-----0-0---------------------0-0-----0-0-/10\-|
           . .     . .                     . .     . .

D|-------------------------------------------------------------------------|
A|-------------------------------------------------------------------------|
F|-------------------------------------------------------------------------|x2
C|-3-3-3-3-3-3-3-3-7-7-7-7-7-7-7-7-0-0-0-0-0-0-0-0-10-10-10-10-10-10-10-10-|
G|-3-3-3-3-3-3-3-3-7-7-7-7-7-7-7-7-0-0-0-0-0-0-0-0-10-10-10-10-10-10-10-10-|
C|-3-3-3-3-3-3-3-3-7-7-7-7-7-7-7-7-0-0-0-0-0-0-0-0-10-10-10-10-10-10-10-10-|

D|-----------------------------------|
A|-----------------------------------|
F|-----------------------------------|
C|10-10-10-10-10--10-10-10--10-10-10-|
G|10-10-10-10-10--10-10-10--10-10-10-|
C|10-10-10-10-10--10-10-10--10-10-10-|

Chorus:
D|---------------------------------------------------------------------------|
A|---------------------------------------------------------------------------|
F|---------------------------------------------------------------------------|
C|-8-8-8-8-8-8-8-10-10-10-10-10-10-10-12-12-12-12-12-12-12-12-12-12-12-12-12-|
G|-8-8-8-8-8-8-8-10-10-10-10-10-10-10-12-12-12-12-12-12-12-12-12-12-12-12-12-|
C|-8-8-8-8-8-8-8-10-10-10-10-10-10-10-12-12-12-12-12-12-12-12-12-12-12-12-12-|

D|----------------------------------------------------------------------|
A|----------------------------------------------------------------------|
F|----------------------------------------------------------------------|
C|-8-8-8-8---8-8-8-10-10-10-10---10-10-10-0-0-0-0---0-0-0-0-0-0-0---0-0-|
G|-8-8-8-8---8-8-8-10-10-10-10---10-10-10-0-0-0-0---0-0-0-0-0-0-0---0-0-|
C|-8-8-8-8---8-8-8-10-10-10-10---10-10-10-0-0-0-0---0-0-0-0-0-0-0---0-0-|






D|----------------------------------12----13----13-|
A|----13----11----10----11----13-------------------|
F|-10----10----10----10----10----10----10----10----|
C|-------------------------------------------------| x7
G|-------------------------------------------------|
C|-------------------------------------------------|

Outro:
D|-------------------------------------------------------------|
A|-6-6-6-6-----6-6-----6-6-6-6-----6-6-6-6-----6-6-----5-5-5-5-|
F|-5-5-5-5-----5-5-----5-5-5-5-----5-5-5-5-----5-5-----5-5-5-5-|
C|-3-3-3-3-0-0-3-3-0-0-3-3-3-3-----3-3-3-3-0-0-3-3-0-0-3-3-3-3-|
G|---------0-0-----0-0---------------------0-0-----0-0---------|
C|---------0-0-----0-0---------------------0-0-----0-0---------|
           . .     . .                     . .     . .

D|-----------------------------------------------------------------------|
A|-6-6-6-6-----6-6-----6-6-6-6-----6-6-6-6-----6-6-----5-5-5-6~----------|
F|-5-5-5-5-----5-5-----5-5-5-5-----5-5-5-5-----5-5-----5-5-5-5~----------|
C|-3-3-3-3-0-0-3-3-0-0-3-3-3-3-----3-3-3-3-0-0-3-3-0-0-3-3-3-3~------15\-|
G|---------0-0-----0-0---------------------0-0-----0-0---------------15\-|
C|---------0-0-----0-0---------------------0-0-----0-0---------------15\-|
           . .     . .                     . .     . .


Me Vs The World
D|--15-15-15-15-15-15-14-14-14-14-----------|
A|-------------------------------15-15-15-15|
F|------------------------------------------|
C|------------------------------------------|x8
G|------------------------------------------|
C|------------------------------------------|

Verse: turn your volume way down for this.
D|----------------------------------|
A|----------------------------------|
F|----------------------------------|
C|--2~~-7~~-3~~-5~~-2~~-7~~-3~~-5~~-|
G|--2~~-7~~-3~~-5~~-2~~-7~~-3~~-5~~-|
C|--2~~-7~~-3~~-5~~-2~~-7~~-3~~-5~~-|

Chorus:
D|-----------------------------------------------------------------------|
A|-----------------------------------------------------------------------|
F|-----------------------------------------------------------------------|
C|-5555--5555--2222--2222--8888888888888888--1010101010101010--777777-xxx|x2
G|-5555--5555--2222--2222--8888888888888888--1010101010101010--777777-xxx|
C|-5555--5555--2222--2222--8888888888888888--1010101010101010--777777-xxx|

Verse 2: REALLY QUIET AGAIN
D|--------------------------------------------------------------------|
A|--------------------------------------------------------------------|
F|--------------------------------------------------------------------|
C|----2-2-2-2-2-2-2-2-7-7-7-7-7-7-7-7-3-3-3-3-3-3-3-3-3-3-3-3-3-5-5-5-|
G|----2-2-2-2-2-2-2-2-7-7-7-7-7-7-7-7-3-3-3-3-3-3-3-3-3-3-3-3-3-5-5-5-|
C|----2-2-2-2-2-2-2-2-7-7-7-7-7-7-7-7-3-3-3-3-3-3-3-3-3-3-3-3-3-5-5-5-|
   pm . . . . . . . .   . . . . . . .   . . . . . . .   . . . .   . . 


D|------------------------------------------------------------|
A|------------------------------------------------------------|
F|------------------------------------------------------------|
C|--2-2-2-2-2-2-2-2-7-7-7-7-7-7-7-7-3-3-3-3-3-3-3-3-5-5-5-5-5-|
G|--2-2-2-2-2-2-2-2-7-7-7-7-7-7-7-7-3-3-3-3-3-3-3-3-5-5-5-5-5-|
C|--2-2-2-2-2-2-2-2-7-7-7-7-7-7-7-7-3-3-3-3-3-3-3-3-5-5-5-5-5-|
  pm. . . . . . . .   . . . . . . .   . . . . . . .   . . . 

  REPEAT CHORUS

  REPEAT INTRO X8, and then end in:
D|-----------------|
A|-----------------|
F|-----------------|
C|---2~---2~---3~--|
G|---2~---2~---3~--|
C|---2~---2~---3~--|

D|--------------------------------------------------------------------|
A|--------------------------------------------------------------------|
F|--------------------------------------------------------------------|
C|--5-5--5-5--2-2--2-2-8888888888888888--1010101010101010--77777-xxx--|
G|--5-5--5-5--2-2--2-2-8888888888888888--1010101010101010--77777-xxx--|
C|--5-5--5-5--2-2--2-2-8888888888888888--1010101010101010--77777-xxx--|

D|--------------------------------------------------------------------|
A|--------------------------------------------------------------------|
F|--------------------------------------------------------------------|
C|--5555--5555-2222--2222-8888888888888888-1010101010101010-77777-xxx-|
G|--5555--5555-2222--2222-8888888888888888-1010101010101010-77777-xxx-|
C|--5555--5555-2222--2222-8888888888888888-1010101010101010-77777-xxx-|

D|------------------------------------------------------------------|
A|------------------------------------------------------------------|
F|------------------------------------------------------------------|
C|--5-5-5-5-5-5-5-5-5-5-5-5-5-5-5-5-2-2-2-2-2-2-2-2-2-2-2-2-2-2-2-2-|
G|--5-5-5-5-5-5-5-5-5-5-5-5-5-5-5-5-2-2-2-2-2-2-2-2-2-2-2-2-2-2-2-2-|
C|--5-5-5-5-5-5-5-5-5-5-5-5-5-5-5-5-2-2-2-2-2-2-2-2-2-2-2-2-2-2-2-2-|

D|-------------------------------------------------------------------------|
A|-------------------------------------------------------------------------|
F|-------------------------------------------------------------------------|
C|-8-8-8-8-8-8-8-8-8-8-8-8-8-8-8-8-10-10-10-10-10-10-10-10-7-7-7-7-7-7-7-7-|
G|-8-8-8-8-8-8-8-8-8-8-8-8-8-8-8-8-10-10-10-10-10-10-10-10-7-7-7-7-7-7-7-7-|
C|-8-8-8-8-8-8-8-8-8-8-8-8-8-8-8-8-10-10-10-10-10-10-10-10-7-7-7-7-7-7-7-7-|

D|-----------------------------------------------------------------|
A|-----------------------------------------------------------------|
F|-----------------------------------------------------------------|
C|-5-5-5-5-5-5-5-5-5-5-5-5-5-5-5-5-2-2-2-2-2-2-2-2-2-2-2-2-2-2-2-2-|
G|-5-5-5-5-5-5-5-5-5-5-5-5-5-5-5-5-2-2-2-2-2-2-2-2-2-2-2-2-2-2-2-2-|
C|-5-5-5-5-5-5-5-5-5-5-5-5-5-5-5-5-2-2-2-2-2-2-2-2-2-2-2-2-2-2-2-2-|

D|----------------------------------------------------------------------|
A|----------------------------------------------------------------------|
F|----------------------------------------------------------------------|
C|--8888888888888888-10101010101010101010101010101010-7777777777777777--|
G|--8888888888888888-10101010101010101010101010101010-7777777777777777--|
C|--8888888888888888-10101010101010101010101010101010-7777777777777777--|

End on:
D|--------|
A|--------|
F|--------|
C|---2~~--|
G|---2~~--|
C|---2~~--|


Morning Sadness
Chords used:
D -   xx0232
F#m - 244222
G -   320033
Dm -  xx0231
Bb -  x13331

Intro: D

Verse 1:
D(all the way)
  Cut my eyes on visions of you
Memories aren't clear
I lost touch with the boy I knew
While you were still here
D(all the way)
  Have you met your god?
Does he know I'm in pain?
Does he even have any plans
For me to see you again?

Chorus 1:
D
  Morning sadness
      F#m   G
So we meet again
D
  Pack your bags
            F#m    G
cause we're leaving
Tonight

Interlude: Dm-- x2

Verse 2:
D(all the way)
  Damage done by a lost loved one
You can never forget
Questioning my faith in God
I know evil exists
D(all the way)
  So I look past the sky
It's where we're going tonight

(Repat Chorus 1)



Chorus 2:
D
  On a mission to
F#m         G
find her in heaven
D
  Maybe we'll get to
 F#m          G
sleep next to God tonight

Interlude: Dm-- x3

Bridge:
         Bb
There's a razor with my name
D
  It carves my life away
Bb
  And I'll find out who's real
      D
Right now

(Repeat Chorus 1)

Chorus 3:
D
  It's the only way
To untie the pain
F#
  From a heart
         G
that has suffered
D
  It's the only way
To untie the pain
F#m
  From a mind that
    G       Dm(End)
is strangled


True Love
Intro
d|---------------------------------------------------------------------------|
A|---------------------------------------------------------------------------|
F|---------------------------------------------------------------------------|
C|---------------------------------------------------------------------------|
G|x99-x77-x99-x77-x9999-x9-x99-x77-x99-x7-x9---------------------------------|
C|---------------------------------------------------------------------------|

Pre Chorus [00:37]
d|---------------------------------------------------------------------------|
A|---------------------------------------------------------------------------|
F|---------------------------------------------------------------------------|
C|-44-22-44-22-44444-44-22-44-2-4----xxxxxx----------------------------------|
G|-44-22-44-22-44444-44-22-44-2-4----xxxxxx----------------------------------|
C|-44-22-44-22-44444-44-22-44-2-4----xxxxxx----------------------------------|

Chorus[00:53]
d|-----------------------------------------2---------------------------------|
A|---------------------------------------2---3-2-----------------------------|
F|---777777-------------6-7-----------------------x-aprox.5------------------|
C|---777777--4444--7--2-6-7--------------------------------------------------|
G|---555555--4444--7--2-4-5----x2--------------------------------------------|
C|-----------4444--7--2------------------------------------------------------|

Verse 2 [Comes in at 01:28]
d|---------------------------------------------------------------------------|
A|---------------------------------------------------------------------------|
F|---------------------------------------------------------------------------|
C|---------------------------------------------------------------------------|
G|--x99-x77-x99-x77-x9999-x9-x99-x77-x99-x7-x9-------------------------------|
C|---------------------------------------------------------------------------|

Pre Chorus [01:44]
d|---------------------------------------------------------------------------|
A|---------------------------------------------------------------------------|
F|---------------------------------------------------------------------------|
C|-44-22-44-22-44444-44-22-44-2-4----xxxxxx----------------------------------|
G|-44-22-44-22-44444-44-22-44-2-4----xxxxxx----------------------------------|
C|-44-22-44-22-44444-44-22-44-2-4----xxxxxx----------------------------------|


Chorus[01:59]
d|-----------------------------------------2---------------------------------|
A|---------------------------------------2---3-2-----------------------------|
F|---777777-------------6-7-----------------------x-aprox.5------------------|
C|---777777--4444--7--2-6-7--------------------------------------------------|
G|---555555--4444--7--2-4-5----x2--------------------------------------------|
C|-----------4444--7--2------------------------------------------------------|

Break-Down [02:21]
d|---------------------------------------------------------------------------|
A|---------------------------------------------------------------------------|
F|---------------------------------------------------------------------------|
C|-44-22-44-22-44444-44-22-44-2-4----xxxxxx-----4444-------------------------|
G|-44-22-44-22-44444-44-22-44-2-4----xxxxxx--x4-4444-------------------------|
C|-44-22-44-22-44444-44-22-44-2-4----xxxxxx-----4444-------------------------|

Chorus[02:56]
d|---------------------------------------------------------------------------|
A|---------------------------------------------------------------------------|
F|---777777-------------6-7--------------------------------------------------|
C|---777777--4444--7--2-6-7--------------------------------------------------|
G|---555555--4444--7--2-4-5----x4--------------------------------------------|
C|-----------4444--7--2------------------------------------------------------|

Outro [03:37]
d|---------------------------------------------------------------------------|
A|---------------------------------------------------------------------------|
F|---------------------------------------------------------------------------|
C|-44-22-44-22-44444-44-22-44-2-4----xxxxxx----------------------------------|
G|-44-22-44-22-44444-44-22-44-2-4----xxxxxx---x3-----------------------------|
C|-44-22-44-22-44444-44-22-44-2-4----xxxxxx----------------------------------|


Tap to rate this tab
# A B C D E F G H I J K L M N O P Q R S T U V W X Y Z