Song name
# A B C D E F G H I J K L M N O P Q R S T U V W X Y Z

Madina Lake - Theyre Coming For Me tab

Tabbed by: Toby1526
Email: tobygibbens@hotmail.co.uk

Tuning: Standard

Repeated guitar riff at beginning and chorus:

e|-----------------|
B|-----------------|
G|---7---7---7-5-7-| (Play many times!)
D|-0---0---0-------|
A|-----------------|
E|-----------------|

Main intro/outro riff: (Try and use some effects on your amp to gain reverb, listen to 
the actual riff and learn it. These are the correct notes but it's hard to describe as 
there are many pull offs and use of vibrato)

Part 1 of riff
e|---------------------------------------------------------------------------|
B|---------------------------------------------------------------------------|
G|~11-h12/11-11-11/12-11-7-~5----11-h12-11-11-11-12-~14----------------------|
D|---------------------------------------------------------------------------|
A|---------------------------------------------------------------------------|
E|---------------------------------------------------------------------------|

Part 2 of riff
e|---------------------------------------------------------------------------|
B|---------------------------------------------------------------------------|
G|~11-h12/11-11-11/12-11-7-0-----11-h12-11-11-11-12-~14----------------------|
D|---------------------------------------------------------------------------|
A|---------------------------------------------------------------------------|
E|---------------------------------------------------------------------------|

Other rythm part for verse:

e|--------------      e|----------|
B|--------------      B|----------|
G|----------~11-  x2  G|-------~4-| x2
D|-12-12-12-----      D|-5-5-5----|
A|-12-12-12-----      A|-5-5-5----|
E|-10-10-10-----      E|-3-3-3----|


************************************

| /   slide up
| \   slide down
| h   hammer-on
| p   pull-off
| ~   vibrato
| +   harmonic
| x   Mute note
| b   Bend
| pb  Pre-bend
| br  Bend release
| pbr Pre-bend release
| brb Bend release bend
Tap to rate this tab
# A B C D E F G H I J K L M N O P Q R S T U V W X Y Z