Guitaretab - guitar tabs
Song name
# A B C D E F G H I J K L M N O P Q R S T U V W X Y Z

Madness - One Step Beyond tab

just  Cm Fm and Gm


Cm e--3- Fm -8-- Gm ----|
   B--4-    -9--    -3--|
   G--5-    -10-    -3--|
   D--5-    -10-    -5--|
   A----    ----    -5--|
   E----    ----    ----|


for a bit of variation during cm go every now and then;

e---2/3-|
B---3/4-|
G---4/5-|
D---4/5-|
A-------|
E-------|  to give it taht 'ska' feel

[ Tab from: http://www.guitaretab.com/m/madness/138822.html ]
the actual saxaphne goes something lie this; (bearing in mind im making this up as i go 
its probably not right)

e----------------------    ---------------------------|
B----------------------    -----------------------5/1-|
G----------------------    -------5~-6-6-5-6-5-6-5----|
D-------5~--3-1-3-1----    --3--6---------------------|
A--3--6-------------3~-    ---------------------------|
E---------------------- x2 ---------------------------|


FIN
Related for One Step Beyond tab