Song name
# A B C D E F G H I J K L M N O P Q R S T U V W X Y Z

Madness - One Step Beyond tab

hey heres my version on one step beyond 

ive tabbed the whole sax bit not 100% but try it
all comments are welcome and plz rate :)

standard tuning

here goes
|-------------------------------------------------------------|
|-------------------------------------------------------------|
|-------------------------------------------------------------|
|------6----------------6----------------6--------------------|
|----7---99-7-9-7-----7---99-7-9-7-----7---99-7-9-7-9b10r9----|
|--9--------------9-9--------------9-9---------------------9--|


|------------------------------------------------------------------------|
|------------------------------------------------------------------------|
|----5-8-9-8-9-8-9-8-13-13p11--------------------------------------------|
|--6--------------------------13-----6-----------------------------------|
|----------------------------------7---99-7-9-7---99-7-9-7---99-7-9-7----|
|--------------------------------9--------------9----------9----------9--|


|------------------------------------------------------------------|
|----------------14------------------------------------------------|
|--------9-11-13----13--13-11-13-11-13-11-13p11--------------------|
|--10-12----------------------------------------14-11-11-11-11-11--|
|------------------------------------------------------------------|
|------------------------------------------------------------------|


|-------------------------------------------------------------------|
|-------------------------------------------------------------------|
|--13-13-13-11-1313-11-13-11-1313-11-13-11-13/16-13-16/18-18-18-18--|
|-------------------------------------------------------------------|
|-------------------------------------------------------------------|
|-------------------------------------------------------------------|


|-------------------------------------------------|
|-------------------------------------------------|
|--18-1616-13-1616-13-16-13-1616-13-16-13-16-13---|
|-------------------------------------------------|
|-------------------------------------------------|
|-------------------------------------------------|

not sure about this bit i cant really here the note 
|------------------------------------------------------------|
|------------------------------------------------------------|
|--16p13/12-13p12/10-12p10/8---------------------------------|
|----------------------------13p12/10-12p10/8-10p8/6-8p6/4---|
|----------------------------------------------------------6-|
|------------------------------------------------------------|


|--------------------------------|
|--------------------------------|
|--------------------------6-----|
|----4-----4-----4-----4-6-------|
|--6---4-6---4-6---4-6-----------|
|--------------------------------|

|-------------------------------------|
|-------------------------------------|
|-------------------------------------|
|------6----------------6-------------|
|----7---99-7-9-7-----7---99-7-9-7----|
|--9--------------9-9--------------9--|


|----------------------------------|
|----------------------------------|
|----5-8-9-8-9-8-9-8-13-13p11------|
|--6--------------------------13---|
|----------------------------------|
|----------------------------------|

|-------------------------------------|
|-------------------------------------|
|-------------------------------------|
|------6----------------6-------------|
|----7---99-7-9-7-----7---99-7-9-7----|
|--9--------------9-9--------------9--|


|----------------------------------|
|----------------------------------|
|----5-8-9-8-9-8-9-8-13-13p11------|
|--6--------------------------13---|
|----------------------------------|
|----------------------------------|

|------------------------------------------------|
|------------------------------------------------|
|--------------------------------------------66--|
|------6-----------------------------------6-----|
|----7---99-7-9-7----99-7-9-7------7---7-9-------|
|--9--------------99----------99-9---9-----------|

|----------------------------------------------------------------------------------------|
|----------------------------------------------------------------------------------------|
|-----9----9-11-13-18--16b18-16b18-16b18-16b18-16b18--16b18-16b18-16b18-16b18-16b18-16---|
|--11---11-------------------------------------------------------------------------------|
|----------------------------------------------------------------------------------------|
|----------------------------------------------------------------------------------------|

hope that helps enjoy the song
Tap to rate this tab
 
# A B C D E F G H I J K L M N O P Q R S T U V W X Y Z