Guitaretab - guitar tabs
Song name
# A B C D E F G H I J K L M N O P Q R S T U V W X Y Z

Madonna - Ray Of Light tab

Intro
e|--------------------------------------------------------------|
B|--------------------------------------------------------------|
G|------7-----7-------8-----8-------10-----10--------12------12-|
D|--------------------------------------------------------------|
A|--------------------------------------------------------------|
E|--6------6-----6/8-----8-----8/10-----10------10/11-----11----|
Verse
e|-----------------------------------------------|
B|-----------------------------------------------|
G|-----------------------------------------------|
D|---------8--8-8-8----------8--8-8-8------------|
A|--8--8---6--6-6-6--8---8---6--6-6-6------------|
E|--6--6---6--6-6-6--6---6---6--6-6-6------------|
[ Tab from: http://www.guitaretab.com/m/madonna/10944.html ]
Chorus
e|--------------------------------------------------------|
B|--------------------------------------------------------|
G|------------------8---8-------------------8---8---------|
D|------8---8---x---8---8-------8---8---x---8---8---------|
A|---x--8---8---6---6---6----x--8---8---6---6---6---------|
E|---6--6---6---x---x---x----6--6---6---x---x---x---------|

around 4:39
e|-----------------------------------------------------|
B|-----------------------------------------------------|
G|-----------------------------------------------------|
D|------------13--13--13------------13-13--13----------|
A|--13-13-13---------------13-13-13--------------------|
E|-----------------------------------------------------|

around 4:58
e|-------------------------------------------------------|
B|-------------------------------------------------------|
G|-------------------------------------------------------|
D|----12-12-------14-14---------12-12-------14-14--------|
A|-13-------13-13--------13-13--------13-13--------------|
E|-------------------------------------------------------|

e|----------------------------------------------|
B|----------------------------------------------|
G|----------------------------------------------|
D|----12-12-------13-13-----12---10---8---6-----|
A|-13-------13-13--------13---------------------|
E|----------------------------------------------|


Related for Ray Of Light tab
Advertisement will be closed in 10 seconds