Song name
# A B C D E F G H I J K L M N O P Q R S T U V W X Y Z

Madonna - Swim tab

Swim by Madonna, 
 C#m        B F# 
e|---------------|---------------------|
B|-----5--5-5-4--|---------------------|
G|-----6--6-6-4--|-3------3--3-3-----3-|repeat throuhout song
D|-----6--6-6-4--|-4------4--4-4-----4-|
A|-4-4-----------|-4------4--4-4-----4-|
E|---------------|-----2----------2----|

Put your head on my shoulder baby
Things can't get any worse
Night is getting colder sometimes
Life feels like it's a curse

I can't carry these sins on my back
Don't wanna carry anymore
I'm gonna carry this train off the track
I'm gonna swim to the ocean floor

Mmmmmm.. crash to the other shore
Mmmmmm.. swim to the ocean floor

Children killing children while the...
Students rape their teachers
Comets fly across the sky
While the churches burn 
their preachers

We can't carry 
these sins on our back
Don't wanna carry anymore
We're gonna carry this train off the track
We're gonna swim to the ocean floor

Mmmmmm.. crash to the other shore
Mmmm.. swim to the ocean floor

Let the water wash over you
Wash it all over you
Swim to the ocean floor
So that we can begin again
Wash away all our sin
Crash to the other shore

I can't carry 
these sins on my back
Don't wanna carry anymore
I'm gonna carry this train off the track
I'm gonna swim to the ocean floor

Mmmmmm.. crash to the other shore
Mmmm.. swim to the ocean floor

We can't carry  these sins on our back
e|-----------------|-----------------------|
B|-------5-------5-|---------11------------|
G|-----6-------6---|------11---------11----|
D|---6-------6-----|---11---------11----11-|
A|-4---------------|-9---------------------|
E|-----------------|-----------------------|
Don't wanna carry anymore
e|-----------------|-----------------------|
B|-------5-------5-|------11---------------|
G|-----6-------6---|---------9-----------9-|
D|---6-------6-----|---11-------------11---|
A|-4---------------|-9---------------------|
E|-----------------|-----------------------|
We're gonna carry this train off the track
e|-----------------|-----------------------|
B|-----5-----------|--------11------12-----|
G|-----------------|------------------11---|
D|---6-------------|----11--------------11-|
A|-4---------------|-9---------------------|
E|-----------------|-----------------------|
We're gonna swim to the ocean floor
e|-----------------|-----------------------|
B|-------5-------5-|------11---------------|
G|-------------6---|--------9--------------|
D|-----6-----6-----|---11-----11-----------|
A|-4---------------|-9---------------------|
E|-----------------|-----------------------|

Crash to the other shore
Swim to the ocean floor


e|-----------------------------------------|
B|-----------------------------------------|
G|------4--------4------4---4/6------------|
D|-4h6------4h6------6---------------------|
A|-----------------------------------------|
E|-----------------------------------------|
Tap to rate this tab
 
# A B C D E F G H I J K L M N O P Q R S T U V W X Y Z