Song name
# A B C D E F G H I J K L M N O P Q R S T U V W X Y Z

Madonna - Celebration tab

This is for a Rock Remix that "The401Drummer" posted on youtube.
http://www.youtube.com/watch?v=Rr4nmAY2w-w

I believe it looks something like this. Listen to the song for the stum pattern.

Standard Tuning

Main Riff:
e|------------------|
G|------------------|
B|------------------|
D|------------------|
A|---------2-2-22-2-|
E|--0--2-2----------|

Chorus:
e|-----------------|
G|-----------------|
B|------------4----|
D|--2----4----4----|
A|--2----4----2----|
E|--0----2---------|
  (x4) (x4)  (x8)
Tap to rate this tab
# A B C D E F G H I J K L M N O P Q R S T U V W X Y Z