Guitaretab - guitar tabs
Song name
# A B C D E F G H I J K L M N O P Q R S T U V W X Y Z

Madonna - Nothing Fails tab

Album: American Life

Riff:
    Em                        D                  C
e |---------------------------------2---0-0-x-2--------0-0-0-0-x-0--------|
B |---------------------------------3---3-3-x-3--------1-1-1-1-x-1--------|
G |---------------------------------2---2-2-x-2--------0-0-0-0-x-0--------|
D |-----------2------------2--0--0--0---0-0-x-0--------2-2-2-2-x-2--------|
A |-------0h2----------0h2-----------------------3--3--3-3-3-3-x-2--------|
E |-0--0---------0--0-----------------------------------------------------|

    G
e |-------3--3--------3--3--|
B |-------0--0--------0ó-0--|
G |-------0--0--------0--0--|
D |-------0--0--------0--0--|
A |-------2--2--------2--2--|
E |-3--3--3--3--3--3--3--3--|


Chords/Lyrics:
       Em            D
Iím in love with you, you silly thing
C           G
 Anyone can see

What is it with you, you silly thing
Just take it from me

       Em
It was not a chance meeting
D
 Feel my heart beating
C              G
 Youíre the one

|Em  |D   |C   |G   |

You could take all this, take it away
Iíd still have it all
[ Tab from: http://www.guitaretab.com/m/madonna/33768.html ]
ícause Iíve climbed the tree of life
And that is why, no longer scared if I fall

When I get lost in space
I can return to this place
ícause, youíre the one

Em
 Nothing fails
D
 No more fears
C
 Nothing fails
G
 You washed away my tears

Em
 Nothing fails
D
 No more fears
C
 Nothing fails
G
 Nothing fails

Iím not religious
But I feel so moved
Makes me want to pray
Pray youíll always be here

Iím not religious
But I feel such love
Makes me want to pray

When I get lost in space
I can return to this place
ícause youíre the one

|Em  |D   |C   |G   |

Iím not religious
But I feel so moved
Iím not religious
Makes me wanna pray

Iím not religious
But I feel so moved
Iím not religious
Makes me want to pray

Iím not religious
But I feel such love
Iím not religious
Makes me want to pray

Iím not religious
But I feel so moved
Iím not religious
Makes me want to pray

Iím not religious
But I feel so moved
Iím not religious
Makes me want to pray

|Em  |D   |C   |G   |

Nothing fails
No more fears
Nothing fails
You washed away my tears
Nothing fails
No more fears
Nothing fails

|Em  |D   |C   |G   |
|Em  |D   |C   |G   |

--> orange_
Related for Nothing Fails tab