Song name
# A B C D E F G H I J K L M N O P Q R S T U V W X Y Z

Madrugada - Norwegian Hammerworks Corp tab

Author/Artist: Madrugada
Title: Norwegian Hammerworks Corp.
Album: Industrial silence
Transcribed by: DMS

Standard tuning (EADGBE)

Introvariasjon:

e||-------------------------------------------------------------------------------|
B||-------------------------------------------------------------------------------|
G||-----------2--2--2-2-2-2--2-2--2-2-2--2--2--2-2-2-2--2-2--2-2-2----------------|
D||-----------2--2--2-2-2-2--2-2--2-2-2--2--2--2-2-2-2--2-2--2-2-2--555-----------|
A||--9------0--0--0-0-0-0--0-0--0-0-0--0--0--0-0-0-0--0-0--0-0-0--555-------------|
E||-----------------------------------------------------------------333-----------|

Mainriff:

e||--------------------------------------------------------------|
B||--------------------------------------------------------------|
G||--2--2--2-2-2-2--2-2--2-2-2--5--5--5-5-5-5--5-5--5-5-5--/9-9--|
D||--2--2--2-2-2-2--2-2--2-2-2--5--5--5-5-5-5--5-5--5-5-5--/9-9--|
A||--0--0--0-0-0-0--0-0--0-0-0--3--3--3-3-3-3--3-3--3-3-3--/7-7--|
E||--------------------------------------------------------------|

e||----------------------------------------------------|
B||----------------------------------------------------|
G||-------------------5555--2--2--2-2-2-2--2-2---------|
D||--3--3-3-3-3--3-3--5555--2--2--2-2-2-2--2-2--555----|
A||--3--3-3-3-3--3-3--3333--0--0--0-0-0-0--0-0--555----|
Tap to rate this tab
 
# A B C D E F G H I J K L M N O P Q R S T U V W X Y Z