Song name
# A B C D E F G H I J K L M N O P Q R S T U V W X Y Z

Madrugada - Kids Are On High Street tab

|-----------------------------------------------------------------------------------------------------------|
|-----------------------------------------------------------------------------------------------------------|
|-----------------------------------------------------------------------------------------------------------|
|---10-----10--10--10----/12----10----8-----------8----8--8-------------------------------------------------|
|---------------------------------------8h10---------------10--10--10p8-------------------------------------|
|-----------------------------------------------------------------------------------------------------------|

|-----------------------------------------------------------------------------------------------------------|
|-----------------------------------------------------------------------------------------------------------|
|-----------------------------------------------------------------------------------------------------------|
|---10-----10--10--10----/12----10----8-----------8----8--10b(12)r10---8---10b(12)r10---8-------------------|
|------------------------------------------8h10-------------------------------------------------------------|
|-----------------------------------------------------------------------------------------------------------|

|-----------------------------------------------------------------------------------------------------------|
|---------------------------------------------------------------------------------------16------------------|
|--------------------------------------------------------------------10b(12)--16--12--------15--12----------|
|---10----10--12--13--12-------------------12p10--12--13--12--13------------------------------------15--13--|
|---------------------------10--10----8---------------------------------------------------------------------|
|-----------------------------------------------------------------------------------------------------------|

|-----------------------------------------------------------------------------------------------------------|
|-----------------------------------------------------------------------------------------------------------|
|-----------------------------------------------------------------------------------------------------------|
|---13--15--13--13/12--12--12----12--13--12--12-------------------------------------------------------------|
|---------------------------------------------------15--15--15----15p13--13--13-----------------------------|
|-----------------------------------------------------------------------------------------------------------|

|-----------------------------------------------------------------------------------------------------------|
|-----------------------------------------------------------------------------------------------------------|
|-----------------------------------------------------------------------------------------------------------|
|---12b(13)r12b(13)r12b(13)r12b(13)r12----------------------------------------------------------------------|
|-----------------------------------------------------------------------------------------------------------|
|-----------------------------------------------------------------------------------------------------------|
Tap to rate this tab
# A B C D E F G H I J K L M N O P Q R S T U V W X Y Z