Song name
# A B C D E F G H I J K L M N O P Q R S T U V W X Y Z

Mads Langer - Youre Not Alone tab

    ____________________
   / Mads Langer       /  Isn't it a bit ironic that you can spend your entire
  / You're Not Alone  /  career perfecting your own songs, while your perhaps
 / (Olive cover)     /  biggest hit still turns out to be a crude demo of an
/___________________/  old pop song?

--------------------------------------------------------------------------------
 The Strumming Pattern:
This is the strumming pattern all the way through the song.
(Notice that you have to switch to the next chord after the second palm slap.)

                                     v  = down strum
  | v ^ (x) ^ v ^ (x) ^ |            ^  = up strum
                                    (x) = slap the strings with the palm of your
                                          right hand (on the beats 2 and 4).

--------------------------------------------------------------------------------

Capo on 1. fret


 Intro:
         Em                    Gmaj7
-(x)-0-|-0-0-(x)-0-0-0-(x)-2-|-2-2-(x)-2-2-2-(x)-0-|
-(x)-0-|-0-0-(x)-0-0-0-(x)-0-|-0-0-(x)-0-0-0-(x)-0-|
-(x)-0-|-0-0-(x)-0-0-0-(x)-0-|-0-0-(x)-0-0-0-(x)-0-|
-(x)-2-|-2-2-(x)-2-2-2-(x)-0-|-0-0-(x)-0-0-0-(x)-2-|
-(x)-2-|-2-2-(x)-2-2-2-(x)-x-|-x-x-(x)-x-x-x-(x)-3-|
-(x)-0-|-0-0-(x)-0-0-0-(x)-3-|-3-3-(x)-3-3-3-(x)---|

  Cmaj7                 Cmaj7
|-0-0-(x)-0-0-0-(x)-0-|-0-0-(x)-0-0-0-(x)-0-|
|-0-0-(x)-0-0-0-(x)-0-|-0-0-(x)-0-0-0-(x)-0-|
|-0-0-(x)-0-0-0-(x)-0-|-0-0-(x)-0-0-0-(x)-0-|
|-2-2-(x)-2-2-2-(x)-2-|-2-2-(x)-2-2-2-(x)-2-|
|-3-3-(x)-3-3-3-(x)-3-|-3-3-(x)-3-3-3-(x)-2-|
|-----(x)-------(x)---|-----(x)-------(x)-0-|



 Verse:
    Em                    G
||--0-0-(x)-0-0-0-(x)-3-|-3-3-(x)-3-3-3-(x)-2-|
||o-0-0-(x)-0-0-0-(x)-3-|-3-3-(x)-3-3-3-(x)-3-|
||--0-0-(x)-0-0-0-(x)-0-|-0-0-(x)-0-0-0-(x)-2-|
||--2-2-(x)-2-2-2-(x)-0-|-0-0-(x)-0-0-0-(x)-0-|
||o-2-2-(x)-2-2-2-(x)-2-|-2-2-(x)-2-2-2-(x)---|
||--0-0-(x)-0-0-0-(x)-3-|-3-3-(x)-3-3-3-(x)---|

 1.,2.,3.
  D                     Am
|-2-2-(x)-2-2-2-(x)-0-|-0-0-(x)-0-0-0-(x)-0--||
|-3-3-(x)-3-3-3-(x)-1-|-1-1-(x)-1-1-1-(x)-0-o||
|-2-2-(x)-2-2-2-(x)-2-|-2-2-(x)-2-2-2-(x)-0--||
|-0-0-(x)-0-0-0-(x)-2-|-2-2-(x)-2-2-2-(x)-2--||
|-----(x)-------(x)-0-|-0-0-(x)-0-0-0-(x)-2-o||
|-----(x)-------(x)---|-----(x)-------(x)-0--||

(4th time it's a just B7 instead of Am.)
 4.
  D                     B7
|-2-2-(x)-2-2-2-(x)-2-|-2-2-(x)-2-2-2-(x)-0-|
|-3-3-(x)-3-3-3-(x)-0-|-0-0-(x)-0-0-0-(x)-1-|
|-2-2-(x)-2-2-2-(x)-2-|-2-2-(x)-2-2-2-(x)-0-|
|-0-0-(x)-0-0-0-(x)-1-|-1-1-(x)-1-1-1-(x)-2-|
|-----(x)-------(x)-2-|-2-2-(x)-2-2-2-(x)-3-|
|-----(x)-------(x)---|-----(x)-------(x)---|



 Chorus:
    C                     G
||--0-0-(x)-0-0-0-(x)-3-|-3-3-(x)-3-3-3-(x)-2-|
||o-1-1-(x)-1-1-1-(x)-3-|-3-3-(x)-3-3-3-(x)-3-|
||--0-0-(x)-0-0-0-(x)-0-|-0-0-(x)-0-0-0-(x)-2-|
||--2-2-(x)-2-2-2-(x)-0-|-0-0-(x)-0-0-0-(x)-0-|
||o-3-3-(x)-3-3-3-(x)-2-|-2-2-(x)-2-2-2-(x)---|
||------(x)-------(x)-3-|-3-3-(x)-3-3-3-(x)---|

  D                     B7                   4x
|-2-2-(x)-2-2-2-(x)-2-|-2-2-(x)-2-2-2-(x)-0--||
|-3-3-(x)-3-3-3-(x)-0-|-0-0-(x)-0-0-0-(x)-1-o||
|-2-2-(x)-2-2-2-(x)-2-|-2-2-(x)-2-2-2-(x)-0--||
|-0-0-(x)-0-0-0-(x)-1-|-1-1-(x)-1-1-1-(x)-2--||
|-----(x)-------(x)-2-|-2-2-(x)-2-2-2-(x)-3-o||
|-----(x)-------(x)---|-----(x)-------(x)----||



 Intro

 Verse

 Chorus



 Breakdown:
(Strum the chords and let them ring.)
  Em                Gmaj7             Cmaj7             Cmaj7
|-0^--------------|-2^--------------|-0^--------------|-----------------|
|-0^--------------|-0^--------------|-0^--------------|-----------------|
|-0^--------------|-0^--------------|-0^--------------|-----------------|
|-2^--------------|-0^--------------|-2^--------------|-----------------|
|-2^--------------|-x^--------------|-3^--------------|-----------------|
|-0^--------------|-3^--------------|-----------------|-----------------|

  Em                Gmaj7             Cmaj7             Cmaj7
|-0^--------------|-2^--------------|-0^--------------|-----------(x)-0-|
|-0^--------------|-0^--------------|-0^--------------|-----------(x)-0-|
|-0^--------------|-0^--------------|-0^--------------|-----------(x)-0-|
|-2^--------------|-0^--------------|-2^--------------|-----------(x)-2-|
|-2^--------------|-x^--------------|-3^--------------|-----------(x)-3-|
|-0^--------------|-3^--------------|-----------------|-----------(x)---|



 Ending Chorus:
The chords of chorus varies a bit here at the end:
 
| Cmaj7 | Gmaj7 | Cmaj7 | B7 |

| Cmaj7 | Gmaj7 | Cmaj7 | B7 |

| Em | Gmaj7 | Cmaj7 | Cmaj7 |

| Em | Gmaj7 | Cmaj7 ...



 LYRICS
**********
In a way it's all a matter of time
I will not worry for you – you will be just fine
Take my thoughts with you, and when you look behind
You will surely see a face that you recognize, yeah yeah

You're not alone, I'll wait till the end of time
Open your mind, surely it's plain to see
You're not alone, I'll wait till the end of time for you
Open your mind, surely it's time to be with me 
 
It is the distance that makes life a little hard
Two minds that once were close; now so many miles apart
I will not falter though, I'll hold on till you're home, yeah yeah
Safely back where you belong, and see how our love has grown

You're not alone, I'll wait till the end of time
Open your mind, surely it's plain to see
You're not alone, I'll wait till the end of time for you
Open your mind, surely it's time to be with me

You're not alone, surely it's time to be with me 
Open your mind, yeah

You're not alone – oh, I'll wait till the end of time for you
Open your mind – open your mind, yeah yeah
You're not alone – no, no


+--------------------------------------------------------------------------+
Jon Sebastian Frederiksen - 6th /May /10
Just mail me at Maitinin@gmail.com with questions, comments and corrections!
Tap to rate this tab
# A B C D E F G H I J K L M N O P Q R S T U V W X Y Z