Song name
# A B C D E F G H I J K L M N O P Q R S T U V W X Y Z

Mads Langer - Riding Elevators tab

[CAPO ON 6th FRET]

Intro:
--------------------------------------------|
--------------------------------------------|
--------------------------------------------|
--2---2---2---2---2---0---0---0---0---0-----|
----3---3---3---3---3---2---2---2---2---2---|
--------------------------------------------|

--------------------------------------------|
--------------------------------------------|
--------------------------------------------|
--2---2---2---2---3---3---5---5---0---0-----|
----3---3---3---3---3---3---3---3---2---2---|
--------------------------------------------|

Verse 1:

Waiting to put my feet on the ground
----------------------------------------------------------|
----------------------------------------------------------|
----------------------------------------------------------|
--2---2---2---2---2---2---2---2---0---0---0---0---3---3---|
----3---3---3---3---3---3---3---3---2---2---2---2---3---3-|
----------------------------------------------------------|

I'm tired of going         up and down
-------------------------------------------------------|
-------------------------------------------------------|
-------------------------------------------------------|
--2---2---2---3---3---3---5---5---5---0---0---0---0----|
----3---3---3---3---3---3---3---3---3---2---2---2---2--|
-------------------------------------------------------|

      But sometimes       it        feels safer,     waiting
---------------------------------------------------------------|
---------------------------------------------------------------|
---------------------------------------------------------------|
--2---2---2---0---0---0---3---3---3---2---0---0---0---2---2----|
----3---3---5---5---5-------3---3---3---3---2---2---2---3---3--|
---------------------------------------------------------------|

(SAME PLUCKING SEQUENCE)
Verse 2:

It's beautiful at the top
But I never really get a chance to stop
It feels like I am falling again

C                  Gsus4
Doors are opening, doors are closing
Csus4
People come and go
Gsus4                   C
But I'm still riding elevators
C                   Gsus4
Never here or there
Gsus4
On the ground or in the air
Csus4
People come and go
Gsus4                   C
But I'm still riding elevators

C                                      Gsus4
Everyone seems to have somewhere to go
C                                Gsus4
I dream of going with them but I don't
C                                Gsus4
I'm looking down always on every floor
C                                         Gsus4
But I never really find what I'm looking for
C     Gsus4  Csus4  C       Gsus4
But I keep   look---ing for you

C                  Gsus4
Doors are opening, doors are closing
Csus4
People come and go
Gsus4                   C
But I'm still riding elevators
C                   Gsus4
Never here or there
Gsus4
On the ground or in the air
Csus4
People come and go
Gsus4                   C
But I'm still riding elevators

C        Gsus4  C      C           Gsus4     C
If I get off----f      I could get lo--------st
Csus4
Or better, if you were there,
Gsus4                             C
I wouldn't have to keep riding elevators

C                  Gsus4
Doors are opening, doors are closing
Csus4
People come and go
Gsus4                   C
But I'm still riding elevators
C                   Gsus4
Never here or there
Gsus4
On the ground or in the air
Csus4
People come and go
Gsus4                   C
But I'm still riding elevators

C                   Gsus4
Never here or there
Gsus4
On the ground or in the air
Csus4
People come and go
Gsus4                   C
But I'm still riding elevators
Tap to rate this tab
 
# A B C D E F G H I J K L M N O P Q R S T U V W X Y Z