Song name
# A B C D E F G H I J K L M N O P Q R S T U V W X Y Z

Mads Langer - Better Place tab

                             Better Place - Mads Langer
-------------------------------------------------------------------------------
Tabbed by:chri945j
E-mail:

Hi Guys! I decided to go at quick tab of this wonderful song, think is sounds pretty good :-) 

Please subscribe, rate or comment! 

Tuning:Standard

Capo on 3 fret

Intro: 

e|-----0------------0--------0---------0---------0--------0------------------------|
B|-----3-----------0---------0---------0---------0--------0------------------------|
G|-----2-----------2---------0---------2---------2--------0------------------------|
D|-----0-----------0---------2---------0---------0--------0------------------------|
A|-----0-----------2---------2---------3---------0--------0------------------------|
E|-----3-----------0---------0---------0---------3--------3------------------------|
Verse: 
  You brought.really tried.compromise.breaking. is something
                                          never thought i'd do
e|-----0-----------0---------0---------0---------0--------0------------------------|
B|-----3-----------0---------0---------0---------0--------0------------------------|
G|-----2-----------2---------0---------2---------2--------0------------------------|
D|-----0-----------0---------2---------0---------0--------0------------------------|
A|-----0-----------2---------2---------3---------0--------0------------------------|
E|-----3-----------0---------0---------0---------3--------3------------------------|

Chorus:
     Go go....   do what... Maybe in the end...you'll find...                
e|-----2-----------0---------0---------0---------0--------0------------------------|
B|-----3-----------3---------0---------0---------1--------3------------------------|
G|-----0-----------4---------1---------1---------0--------0------------------------|
D|-----0-----------4---------0---------2---------2--------4------------------------|
A|-----0-----------0---------2---------2---------0--------0------------------------|
E|-----0-----------2---------0---------0---------0--------0------------------------|

And the second verse and chorus are the same as the first. 
Tap to rate this tab
# A B C D E F G H I J K L M N O P Q R S T U V W X Y Z