Song name
# A B C D E F G H I J K L M N O P Q R S T U V W X Y Z

Mads Langer - Im Leaving tab

-------------------------------------------------------------------------------
                             I'm Leaving - Mads Langer
-------------------------------------------------------------------------------

Tabbed by: chri945j

E-mail:

Tuning: Standard

Capo on 7th fret 

Intro: 

e|------0----------------0-------------0------------0----------------------------|
B|------2----------------0-------------2------------0----------------------------|
G|------1----------------1-------------1------------1----------------------------|
D|------2----------------2-------------2------------2----------------------------|
A|------0----------------2-------------0------------2----------------------------|
E|------0----------------0-------------0------------0----------------------------|

Verse:

    I don't need      a wire ..   need a gun ...you have in mind
e|------0----------------0-------------0-------------0---------------------------|
B|------2----------------0-------------3-------------0---------------------------|
G|------1----------------1-------------0-------------2---------------------------|
D|------2----------------2-------------0-------------2---------------------------|
A|------0----------------2-------------2-------------0---------------------------|
E|------0----------------0-------------0-------------0---------------------------|
    no no no
e|----------------0-----------------------------------------------------------|
B|----------------0-----------------------------------------------------------|
G|----------------1-----------------------------------------------------------|
D|----------------2-----------------------------------------------------------|
A|----------------2-----------------------------------------------------------|
E|----------------0-----------------------------------------------------------|

Chorus: 

But i've lost my faith.....  it's just deceiving       
e|----------------0------------------0-----------------------------------------|
B|----------------0------------------0-----------------------------------------|
G|----------------2------------------1-----------------------------------------|
D|----------------2------------------2-----------------------------------------|
A|----------------0------------------2-----------------------------------------|
E|----------------0------------------0-----------------------------------------|

second verse and chorus is just the same as the first ones. 
Tap to rate this tab
# A B C D E F G H I J K L M N O P Q R S T U V W X Y Z