Song name
# A B C D E F G H I J K L M N O P Q R S T U V W X Y Z

Mads Langer - Heartquake tab

Capo on 2nd fret.

Intro:
   Cmaj7       Gadd9      Cmaj7        Gadd9
e|-------------------------------------------------|
B|---0-0---0-0---0-0---0-0---0-0---0-0---0-0---0-0-|
G|---0-0---0-0---2-2---2-2---0-0---0-0---2-2---2-2-|
D|---2-2---2-2---0-0---0-0---2-2---2-2---0-0---0-0-|
A|-3-----3-----------------3-----3-----------------|
E|-------------3-----3-----------------3-----3-----|

Verse:
   Cmaj7       Gadd9      Cmaj7        Gadd9
e|-------------------------------------------------|
B|---0-0---0-0---0-0---0-0---0-0---0-0---0-0---0-0-|
G|---0-0---0-0---2-2---2-2---0-0---0-0---2-2---2-2-| 
D|---2-2---2-2---0-0---0-0---2-2---2-2---0-0---0-0-|  x2
A|-3-----3-----------------3-----3-----------------|
E|-------------3-----3-----------------3-----3-----|

Bridge:
   Cmaj7    D7M     Cmaj7   D7M
e|--------------------------------|
B|--0-------3-------0-------3-----|
G|--0-------0-------0-------0-----|
D|--2-------4-------2-------4-----|
A|--3-------5-------3-------5-----|
E|--------------------------------|

Chorus:
   Gadd7             Cmaj7           Em                C
e|--------------------------------------------------------------------|
B|---0--0-----0--0-----0--0----0--0----0--0-----0--0-----1--1----1--1-|
G|---2--2-----2--2-----0--0----0--0----0--0-----0--0-----0--0----0--0-|
D|---0--0-----0--0-----2--2----2--2----2--2-----2--2-----2--2----2--2-|  x2
A|-------------------3----3--3-------------------------3-------3------|
E|-3----3---3------------------------0-------0------------------------|

   C                 D7M             Em                Em
e|--------------------------------------------------------------------|
B|---1--1-----1--1-----3--3----3--3----0--0-----0--0-----0--0----0--0-|
G|---0--0-----0--0-----0--0----0--0----0--0-----0--0-----0--0----0--0-|
D|---2--2-----2--2-----4--4----4--4----2--2-----2--2-----2--2----2--2-|  x2
A|-3--------3--------5-------5----------------------------------------|
E|-----------------------------------0-------0---------0-------0------|

On the last Em, you may play:

e|-----0-2-3-2-0---|
B|---0---0---0---0-|
G|---0---0---0---0-|
D|---2---2---2---2-|  
A|-----------------|
E|--0------0-------|

C-part:
   C                 D7M             Em                Gadd7
e|--------------------------------------------------------------------|
B|---1--1-----1--1-----3--3----3--3----0--0-----0--0-----0--0----0--0-|
G|---0--0-----0--0-----0--0----0--0----0--0-----0--0-----2--2----2--2-|
D|---2--2-----2--2-----4--4----4--4----2--2-----2--2-----0--0----0--0-|  
A|-3--------3--------5-------5----------------------------------------|
E|-----------------------------------0-------0---------3-------3------|

   C                 D7M             E                 E
e|--------------------------------------------------------------------|
B|---1--1-----1--1-----3--3----3--3----0--0-----0--0-----0--0----0--0-|
G|---0--0-----0--0-----0--0----0--0----2--2-----2--2-----1--1----1--1-|
D|---2--2-----2--2-----4--4----4--4----2--2-----2--2-----2--2----2--2-|  
A|-3--------3--------5-------5----------------------------------------|
E|-----------------------------------0-------0---------0-------0------|

Verse after c-part:

    D       A       Dsus2   
e|--2---------------0------------|
B|--3-------2-------2------------|
G|--2-------2-------2------------|
D|--0-------2-------0------------|
A|----------0--------------------|
E|-------------------------------|

Chorus after c-part:
   A                 D               F#m               D
e|---------------------2--2----2--2----------------------2--2----2--2-|
B|---2--2-----2--2-----3--3----3--3----2--2-----2--2-----3--3----3--3-|
G|---2--2-----2--2-----2--2----2--2----2--2-----2--2-----2--2----2--2-|
D|---2--2-----2--2---0----0--0---------4--4-----4--4---0-------0------| x2 
A|-0--------0---------------------------------------------------------|
E|-----------------------------------2-------2------------------------|

   Dsus2             E               F#m               F#m
e|---0--0-----0--0----------------------------------------------------|
B|---2--2-----2--2-----0--0----0--0----2--2-----2--2-----2--2----2--2-|
G|---2--2-----2--2-----1--1----1--1----2--2-----2--2-----2--2----2--2-|
D|-0----0---0----------2--2----2--2----4--4-----4--4-----4--4----4--4-| x4  
A|--------------------------------------------------------------------|
E|-------------------0------0--------2-------2---------2-------2------|

Questions can be email to jonze70@gmail.com
Enjoy!
Tap to rate this tab
# A B C D E F G H I J K L M N O P Q R S T U V W X Y Z