Song name
# A B C D E F G H I J K L M N O P Q R S T U V W X Y Z

Mads Langer - Kbenhavn chords

Highlighted       Show chord diagrams
Mads Langer 
Behold Deluxe
København (Fra En DC9)

[Intro]

 Amaj13                     Amaj13                                                           
|-0-----0-----0-----0------|-0-----0-----0-----0------|
|-9-----9-----9-----9------|-9-----9-----9-----9------|
|-11----11----11----11-----|-11----11----11----11-----|
|-11----11----11----11-----|-11----11----11----11-----|
|-0-----0-----0-----0------|-0-----0-----0-----0------|
|--------------------------|--------------------------|
  1     2     3     4        1     2     3     4   

 C#m7         C#m9          C#m7         C#m9
|-0-----0-----0-----0------|-0-----0-----0-----0------|
|-0-----0-----0-----0------|-0-----0-----0-----0------|
|-9-----9-----8-----8------|-9-----9-----8-----8------|
|-9-----9-----9-----9------|-9-----9-----9-----9------|
|-x-----x-----x-----x------|-x-----x-----x-----x------|
|-9-----9-----9-----9------|-9-----9-----9-----9------|
  1     2     3     4        1     2     3     4   

 Amaj13                     Amaj7        Amaj13
|-0-----0-----0-----0------|-0-----0-----0-----0------|
|-9-----9-----9-----9------|-10----10----9-----9------|
|-11----11----11----11-----|-11----11----11----11-----|
|-11----11----11----11-----|-11----11----11----11-----|
|-0-----0-----0-----0------|-0-----0-----0-----0------|
|--------------------------|--------------------------|
  1     2     3     4        1     2     3     4   

 C#m7         C#m9          C#m9        
|-0-----0-----0-----0------|-0-----0-----0-----0------|
|-0-----0-----0-----0------|-9-----9-----9-----9------|
|-9-----9-----8-----8------|-8-----8-----8-----8------|
|-9-----9-----9-----9------|-9-----9-----9-----9------|
|-x-----x-----x-----x------|-x-----x-----x-----x------|
|-9-----9-----9-----9------|-9-----9-----9-----9------|
  1     2     3     4        1     2     3     4   


[Vers]

Amaj13
Se nu kommer Casanova, på jagt efter vildt, der er

C#m7
posemænd og koner, der hiver efter ilt, en

Amaj13
japaner med minolta, skyder løs på et slot og

C#m7                                              Bsus4 
selvom havfruen er ældet, så klarer hun det flot.


[OmkvæD]

       Amaj13                            Bsus4
Har du nogensinde set København fra en DC9,

       Amaj13                            Bsus4
har du nogensinde set København fra en DC9,

       C#m7               D#m7(#5b9)
har du nogensinde set det,

          E        [ch]C#m7/E[/ch]        D#m7(#5b9)/E        [ch]Bsus4/E[/ch]
det er et smukt syn.

C#m7                    D#m7(#5b9)               Amaj13      C#m7      Amaj13      C#m7
Kigge ned når tågen den letter, og solen står højt over byen.


[Vers]

     Amaj13
I et springvand står en junkie, en tidligt famlet star, der

C#m7
kommer kongens foged han napper hvad han har.

Amaj13
Hjertet banker hurtigt, iskoldt øl er sundt, 

C#m7                                                           Bsus4 
sådan en solskinsdag i Nyhavn hvor pigerne de går næsten nøgne rundt.


[OmkvæD]

       Amaj13                            Bsus4
Har du nogensinde set København fra en DC9,

       Amaj13                            Bsus4
har du nogensinde set København fra en DC9,

       C#m7               D#m7(#5b9)
har du nogensinde set det,

          E        [ch]C#m7/E[/ch]        D#m7(#5b9)/E        [ch]Bsus4/E[/ch]
det er et smukt syn.

C#m7                    D#m7(#5b9)               Amaj13      C#m7      Amaj13      C#m7
Kigge ned når tågen den letter, og solen står højt over byen.


[Vers]

    Amaj13
En gambler går på røven på Scandinavia Hotel, veksler

C#m7
konen til jetoner og sætter dem på spil. På

Amaj13
strøget står musikken, spiller penge i en hat.

C#m7                                                              Bsus4
Ministeren tjekker sine, siger at i skylder næsten det dobbelte i skat.


[OmkvæD]

       Amaj13                            Bsus4
Har du nogensinde set København fra en DC9,

       Amaj13                            Bsus4
har du nogensinde set København fra en DC9,

       C#m7               D#m7(#5b9)
har du nogensinde set det,

          E        [ch]C#m7/E[/ch]        D#m7(#5b9)/E        [ch]Bsus4/E[/ch]
det er et smukt syn.

C#m7                    D#m7(#5b9)             Amaj13      C#m7      Amaj13      C#m7       E
Kigge ned når tågen den letter, og solen står højt over byen.


AKKORDER

Vers:

Amaj13         | x 0 11 11 9 0 |

C#m7           | 9 x 9 9 0 0 |
  
Bsus4          | 7 x 9 9 0 0 |


Omkvæd:

Amaj13         | x 0 11 11 9 0 |

Bsus4          | 7 x 9 9 0 0 |

C#m7           | 9 x 9 9 0 0 |

D#m7(#5b9)     | 11 x 11 11 0 0 |

E              | 0 x 14 13 0 0 |

[ch]C#m7/E[/ch]         | 0 x 9 9 0 0 |

D#m7(#5b9)/E   | 0 x 11 11 0 0 |

[ch]Bsus4/E[/ch]        | 0 x 9 9 0 0 |

E (sidste)     | 0 x 2 1 0 0 |
Tap to rate this tab
# A B C D E F G H I J K L M N O P Q R S T U V W X Y Z