Song name
# A B C D E F G H I J K L M N O P Q R S T U V W X Y Z

Madsen - Nachtbaden tab

-------------------------------------------------------------------------------
			     MADSEN - Nachtbaden
-------------------------------------------------------------------------------
Tabbed by: Daniel von .random - www.randomrocks.de
Email: dgoetjen@hotmail.com

Tuning: eBGDAD Drop D; Standard geht aber auch

Das Ganze ist im Prinzip wirklich einfach; wechselt einfach in der Strophe zwischen 
Akkorden:

   A	G      die beiden im Wechsel mit:    C    Bb

e|----------|------------------------------|----------|
B|----------|------------------------------|----------|
G|----------|------------------------------|----------|
D|-7----5---|------------------------------|-10----8--|
A|-7----5---|------------------------------|-10----8--|
D|-7----5---|------------------------------|-10----8--|

Vor dem Refrain dann G:

e|---|
B|---|
G|---|
D|-5-|
A|-5-|
D|-5-|


Refrain:

   C	 C     F    G    3x, dann   F    G    A
e|-----------------------|        |------------|
B|-----------------------|        |------------|
G|-----------------------|        |------------|
D|-10----10----3----5----|        |-3----5----7|
A|-10----10----3----5----|        |-3----5----7|
D|-10----10----3----5-- -|        |-3----5----7|

Im letzten Refrain ist alles nen Halbton höher, also:

   D	 D     G    A    3x, dann   G    A    D
e|-----------------------|        |-------------|
B|-----------------------|        |-------------|
G|-----------------------|        |-------------|
D|-12----12----5----7----|        |-3----5----12|
A|-12----12----5----7----|        |-3----5----12|
D|-12----12----5----7-- -|        |-3----5----12|


Viel Spaß damit! Das neue Album "Frieden im Krieg" kommt am 7. März 2008 in die Läden, 
euch und unterstützt die Band! Korrekturen und Kommentare sind natürlich willkommen; 
hat ja jemand Lust, das Solo zu tabben ;)

Daniel
Tap to rate this tab
# A B C D E F G H I J K L M N O P Q R S T U V W X Y Z